Relient K - This Week The Trend tab

Alrighty. This took me a few minutes to get down, its not too hard. On some of the 
I was too lazy to find an exact count of strums, but its easy to figure out. Just really 
to count.

This Week The Trend
Relient K
Mmhmm
Tabbed by: Pat V
Tuning:E Flat

Riff AGuitar 1|--------------------------------------------------------||--------------------------------------------------------||---66-44------------------------------------------------| (x2)|------------------667-----------------------------------||00-------44-55-77---------------------------------------||--------------------------------------------------------|
|--------------------------------------------------------||--------------------------------------------------------||-----66-44----------------------------------------------| (x2)|*00*----------------667---------------------------------||-----------44-55-77-------------------------------------||--------------------------------------------------------|
|--------------------------------------------------------||--------------------------------------------------------||---66-44------------------------------------------------| (x2)|------------------667-----------------------------------||00-------44-55-77---------------------------------------||--------------------------------------------------------|
|----------------------------------------------------------||-------------------------------------------------55-------||---66-44------------------66-44----------44-66-44--66-446-||00----------------667--00---------------------------------||---------44-55-77---------------44-55-77------------------||----------------------------------------------------------|
*00*, you can also play the A string, fifth fret, if its more comfy. Guitar 2
|--------------------------------------------------------||--------------------------------------------------------||--------------------------------------------------------| (x2)|7~------------------------------------------------------||7~------------------------------------------------------||5~------------------------------------------------------|
|--------------------------------------------------------||--------------------------------------------------------||7~------------------------------------------------------| (x2)|7~------------------------------------------------------||5~------------------------------------------------------||--------------------------------------------------------|
|--------------------------------------------------------||--------------------------------------------------------||--------------------------------------------------------| (x2)|7~------------------------------------------------------||7~------------------------------------------------------||5~------------------------------------------------------|
|--------------------------------------------------------||--------------------------------------------------------||7~------------------------------------------------------| (x2)|7~------------------------------------------------------||5~------------------------------------------------------||--------------------------------------------------------|
Riff B|--------------------------------------------------------||--------------------------------------------------------||---7--11--9---------------------------------------------||7--7--11--9---------------------------------------------||7--5---9--7---------------------------------------------||5-------------------------------------------------------| . . . .
Riff CGuitar 1|--------------------------------------------------------||--------------------------------------------------------||6--7----------------------------------------------------||x--x--7--9----------------------------------------------||4--5--x--x----------------------------------------------||------5--7----------------------------------------------|
Guitar 2|--------------------------------------------------------||--------------------------------------------------------||6--7----------------------------------------------------||6--7--7--9----------------------------------------------||4--5--7--9----------------------------------------------||------5--7----------------------------------------------|
Riff D
|--------------------------------------------------------||--------------------------------------------------------||6--7----------------------------------------------------||6--7--7--9----------------------------------------------||4--5--7--9----------------------------------------------||------5--7----------------------------------------------| . . . .
Riff E (Not 100% sure on this one, pretty close tho)
|-----------------------------------------------------------------------||----------------------------------------------55-----------55----------||---66-44-----------------66-44-------------66----6677446677--6677464---||------------------667-00----------------44--------------------------78-||00-------44-55-77--------------44-55-77--------------------------------||-----------------------------------------------------------------------|
Riff F|--------------------------------------------------------||--------------------------------------------------------||9-------------------------------------------------------||x-(strummed)--------------------------------------------||7-------------------------------------------------------||--------------------------------------------------------|
Riff G|--------------------------------------------------------||--------------------------------------------------------||2-2-2---------------------------------------------------||2-2-2(strummed)-----------------------------------------||0-0-0---------------------------------------------------||--------------------------------------------------------| .
End on
|--------------------------------------------------------||--------------------------------------------------------||2~------------------------------------------------------||2~------------------------------------------------------||0~------------------------------------------------------||--------------------------------------------------------|
Order Riff A Bass/Piano Riff B Riff C (x2) Riff D (x2) Riff B Riff A Riff B Riff C (x2) Riff D (x2) Riff E Bass/Piano Riff F Riff G (x8) Learn Timings, its a pretty simple song. Enjoy =)
Tap to rate this tab
 
# A B C D E F G H I J K L M N O P Q R S T U V W X Y Z