Renaud - Dserteur tab

Déserteur (Live de "Paris-Province") ; Renaud
Commentaires : shidot@hotmail.fr

* Intro *

E||--------------------|--------------------|-----------1--------|B||-----------1--------|-----------1--------|--------1-----1-----|G||--------0-----0-----|--------2-----2-----|-----2-----------2--|D||-----2--------------|-----2-----------2--|--3-----------------|A||--3--------------2--|--0-----------------|--------------------|E||--------------------|--------------------|--------------------|
----------5--3--------|-----3--------------|-----------4--------|----------------3-----|--------4--3--------|--------4-----4-----|-------4-----------4--|--------------5-----|-----5-----------0--|-sl-5-----------------|-----------------5--|--6-----------------|----------------------|--3-----------------|--------------------|----------------------|--------------------|--------------------|
-----------1--------|------------------||--------1-----1-----|-----------3------||-----1-----------1--|--------0---------||--3-----------------|-----0------------||--------------------|------------------||--------------------|--3---------------||
* Couplets *
--------------------0-----------------|-----------1-----------1--------------|--------0-----0-----------0-----------|-----2-----------2-----------2-----0--|--3-----------------------------3-----|--------------------------------------|
--------------------------------------|-----------0-----------0--------------|--------0-----0-----------0-----------|-----2-----------2-----------2--------|--2-----------------------------3--2--|--------------------------------------|
--------------------0-----------------|-----------1-----------1--------------|--------2-----2-----------2-----------|-----2-----------2-----------2--------|--0-----------------------------------|--------------------------------------|
--------------------5--------------|--------------------||-----------6-----------6-----------|--------1--------0--||--------7-----7------------7-------|--------------------||-----7-----------7------------7----|-----0--------0-----||--5------------------------------5-|--------------------||-----------------------------------|--3--------3--------||
--------------------3-----------------|-----------1-----------1--------------|--------0-----0-----------0-----------|-----2-----------2-----------2-----0--|--3-----------------------------3-----|--------------------------------------|
--------------------3-----------------|-----------0-----------0--------------|--------0-----0-----------0-----------|-----2-----------2-----------2--------|--2-----------------------------3--2--|--------------------------------------|
--------------------3-----------------||-----------1-----------1--------------||--------0-----0-----------0-----------||-----2-----------2-----------2--------||--1-----------------------------3-----||--------------------------------------||
--------------------5--------------||-----------6-----------6-----------||--------7-----7------------7-------||-----7-----------7------------7----||--5------------------------------5-||-----------------------------------||
-------------------||---------------------||-------------------||---------------------||----------4--------||--5-------------4----||-------5-----5-----||--5-------------5----||----5-----------5--||--5-------------5----||-3-----------------||--3-------------3----||
----------4--------||-----------1---------||-------4-----4-----||--------1-----1------||----5-----------0--||-----1-----------1---||-6-----------------||--3------------------||-------------------||---------------------||-------------------||---------------------||
* Pont = Intro * * Dernier couplet *
--------------------0-----------------|------------------||-----------1-----------1--------------|------------------||--------0-----0-----------0-----------|------------------||-----2-----------2-----------2-----0--|------------------||--3-----------------------------3-----|------------------||--------------------------------------|------------------||
--------------------0-----------------|------------------||-----------0-----------0--------------|------------------||--------0-----0-----------0-----------|------------------||-----2-----------2-----------2--------|------------------||--2-----------------------------3--2--|------------------||--------------------------------------|------------------||
--------------------0-----------------|------------------||-----------1-----------1--------------|------------------||--------2-----2-----------2-----------|------------------||-----2-----------2-----------2--------|------------------||--0-----------------------------------|------------------||--------------------------------------|------------------||
--------------------5--------------||-------------------||-----||-----------6-----------6-----------||-------------------||-----||--------7-----7------------7-------||----------4--------||--5--||-----7-----------7------------7----||-------5-----5-----||--5--||--5------------------------------5-||----5-----------5--||--5--||-----------------------------------||-3-----------------||--3--||
Tap to rate this tab
 
# A B C D E F G H I J K L M N O P Q R S T U V W X Y Z