Revolution Mother – The Accuser tab

Tuning: Drop 1 Step

(00:25)|--------|-----------|-----------|-----------|-----------|-----------||--------|-----------|-----------|-----------|-----------|-----------||--------|-----------|-----------|-----------|-----------|-----------||------1-|---------1-|--------1--|---------1-|--------1--|---------1-||---1-2--|------1-2--|-----1-2---|------1-2--|-----1-2---|------1-2--||-0------|-00-0------|-0-0-------|-00-0------|-0-0-------|-00-0------|
|-----------|-------------||-----------|-------------||-----------|-------------||--------1--|---------1---||-----1-2---|------1-2----||-0-0-------|-00-0------0-|
(00:44)|-------------------||-------------------||-------------------||---------------3~--|X4|---------------1~--||-00000000000000----| ..............
(01:03)|-------------------||-------------------||-------------------||-------------3-2~--|X4|-------------1-0~--||-000000000000------|
............(01:22)|--------|-----------|-----------|-----------|-----------|-----------||--------|-----------|-----------|-----------|-----------|-----------||--------|-----------|-----------|-----------|-----------|-----------||------1-|---------1-|--------1--|---------1-|--------1--|---------1-||---1-2--|------1-2--|-----1-2---|------1-2--|-----1-2---|------1-2--||-0------|-00-0------|-0-0-------|-00-0------|-0-0-------|-00-0------|
|-----------|-------------||-----------|-------------||-----------|-------------||--------1--|---------1---||-----1-2---|------1-2----||-0-0-------|-00-0------0-|
(01:40)|-------------------||-------------------||-------------------||---------------3~--|X4|---------------1~--||-00000000000000----| ..............
(02:00)|-------------------||-------------------||-------------------||-------------3-2~--|X4|-------------1-0~--||-000000000000------| ............
(02:18)|--------|-----------|-----------|-----------|-----------|-----------||--------|-----------|-----------|-----------|-----------|-----------||--------|-----------|-----------|-----------|-----------|-----------||------1-|---------1-|--------1--|---------1-|--------1--|---------1-||---1-2--|------1-2--|-----1-2---|------1-2--|-----1-2---|------1-2--||-0------|-00-0------|-0-0-------|-00-0------|-0-0-------|-00-0------|
|-----------|-------------||-----------|-------------||-----------|-------------||--------1--|---------1---||-----1-2---|------1-2----||-0-0-------|-00-0------0-|
(02:37)|-----------------------------||-----------------------------||-----------------------------||-3~---2~---3~---2~---3-2-----||-1~---0~---1~---0~---1-0-2~--||-------------------------0~--|
(02:50)|---------||---------||---------||-3-2-----|X3|-1-0-2~--||-----0~--|
(03:04)|--------------------||--------------------||--------------------||-3-2~---------------|X4(On The 4th time play)|-3-2~-||-1-0~---------------| |-1-0~-||------000000000000--|
(03:24)|--------|-----------|-----------|-----------|-----------|-----------||--------|-----------|-----------|-----------|-----------|-----------||--------|-----------|-----------|-----------|-----------|-----------||------1-|---------1-|--------1--|---------1-|--------1--|---------1-||---1-2--|------1-2--|-----1-2---|------1-2--|-----1-2---|------1-2--||-0------|-00-0------|-0-0-------|-00-0------|-0-0-------|-00-0------|
|-----------|-------------||-----------|-------------||-----------|-------------||--------1--|---------1---||-----1-2---|------1-2----||-0-0-------|-00-0------0-|
(03:43)|-----------------------------||-----------------------------||-----------------------------||-3~---2~---3~---2~---3-2-----||-1~---0~---1~---0~---1-0-----||-----------------------------|
(03:52)|-----------------------------||-----------------------------||-----------------------------||----------------1~-----------|(Keep Playing This Rift|----------------3~-----------| Until The End Of The Song)|-00000000000000--------------|
Please rate this tab:
x1.0