Rhapsody - Knightrider Of Doom tab

Knightrider Of Doom                               
                                                     
xjljy@hotmail.com
Distortion Guitar


                                                                           
D||-----------|-----------------------------|-----------------------------|A||-----------|-----------------------------|-----------------------------|F||-----------|-----------------------------|-----------------------------|C||--2--------|-----------------------------|-----------------------------|G||--2--------|--2--2--2-2-2--2-2-2-2-2--2--|--2--2--2-2-2--2-2-2-2-2--2--|D||-----------|-----------------------------|-----------------------------|
-----------------------------|--7---------------------|-----------------------------|-------8----10--8--7----|-----------------------------|-------------------8----|-----------------------------|------------------------|--2--2--2-2-2--2-2-2-2-2--2--|------------------------|-----------------------------|------------------------|
-----------------------------|-----------------------------|-----------------------------|-----------------------------|-----------------------------|-----------------------------|-----------------------------|-----------------------------|--2--2--2-2-2--2-2-2-2-2--2--|--2--2--2-2-2--2-2-2-2-2--2--|-----------------------------|-----------------------------|
-----------------------------|-----------------------------|-------0-----|-----------------------------|-----------------------------|----0-----0--|-----------------------------|-----------------------------|-------------|-----------------------------|--------------------2--------|-------------|--2--2--2-2-2--2-2-2-2-2--2--|--2--2--2--2--2--2--2--------|-------------|-----------------------------|-----------------------------|-------------|
-----------------------------|-----------------------------|-----------------------------|-----------------------------|-----------------------------|-----------------------------|-----------------------------|-----------------------------|--2--2--2-2-2--2-2-2-2-2--2--|--2--2--2-2-2--2-2-2-2-2--2--|-----------------------------|-----------------------------|
-----------------------------|--7---------------------|-----------------------------|-------8----10--8--7----|-----------------------------|-------------------8----|-----------------------------|------------------------|--2--2--2-2-2--2-2-2-2-2--2--|------------------------|-----------------------------|------------------------|
-----------------------------|-----------------------------|-----------------------------|-----------------------------|-----------------------------|-----------------------------|-----------------------------|-----------------------------|--2--2--2-2-2--2-2-2-2-2--2--|--2--2--2-2-2--2-2-2-2-2--2--|-----------------------------|-----------------------------|
-----------------------------|-----------------------------|-------0-----|-----------------------------|-----------------------------|----0-----0--|-----------------------------|-----------------------------|-------------|-----------------------------|--------------------2--------|-------------|--2--2--2-2-2--2-2-2-2-2--2--|--2--2--2--2--2--2--2--------|-------------|-----------------------------|-----------------------------|-------------|
-------------------|--19h15----------15-20h15-19h15----------15-19h15-|-------------------|--------17----17----------------17----17----------|-------------------|-----------16----------------------16-------------|-------------------|--------------------------------------------------|--8----------------|--------------------------------------------------|--6----------------|--------------------------------------------------|
--19h14----------14-20h14-19h14----------14-19h14-|--------16----16----------------16----16----------|-----------16----------------------16-------------|--------------------------------------------------|--------------------------------------------------|--------------------------------------------------|
--18h14----------14-19h14-18h14----------14-18h14-|--19--16--------------------|--------16----16----------------16----16----------|--21--18--18--15------------|-----------15----------------------15-------------|----------19--16--16--------|--------------------------------------------------|------------------18--------|--------------------------------------------------|----------------------------|--------------------------------------------------|----------------------------|
------------|------------------|----------------------------------|------15----|------------------|----------------------------------|------16----|------------------|----------------------------------|------------|------------------|----------------------------------|------------|------------------|--0-0-0-0-2-0-3-0-0-0-0-0-2-0-3-0-|------------|------------------|----------------------------------|
----------------------------------|----------------------------------|----------------------------------|----------------------------------|----------------------------------|----------------------------------|----------------------------------|----------------------------------|--0-0-0-0-2-0-3-0-0-0-0-0-2-0-3-0-|--4-4-4-4-6-4-7-4-4-4-4-4-6-4-7-4-|----------------------------------|----------------------------------|
----------------------------------|----------------------------------|----------------------------------|----------------------------------|----------------------------------|----------------------------------|----------------------------------|----------------------------------|--4-4-4-4-6-4-7-4-4-4-4-4-6-4-7-4-|----------------------------------|----------------------------------|--4-4-4-4-6-4-7-4-4-4-4-4-6-4-7-4-|
----------------------------------|-------------------|-------------------|----------------------------------|-------------------|-------------------|----------------------------------|--4----------------|-------------------|----------------------------------|--4----------------|--4----------------|----------------------------------|--2----------------|--4----------------|--4-4-4-4-6-4-7-4-4-4-4-4-6-4-7-4-|-------------------|--2----------------|
----------------------------------|----------------------------------|----------------------------------|----------------------------------|----------------------------------|----------------------------------|----------------------------------|----------------------------------|--0-0-0-0-2-0-3-0-0-0-0-0-2-0-3-0-|--0-0-0-0-2-0-3-0-0-0-0-0-2-0-3-0-|----------------------------------|----------------------------------|
----------------------------------|----------------------------------|----------------------------------|----------------------------------|----------------------------------|----------------------------------|----------------------------------|----------------------------------|--4-4-4-4-6-4-7-4-4-4-4-4-6-4-7-4-|--4-4-4-4-6-4-7-4-4-4-4-4-6-4-7-4-|----------------------------------|----------------------------------|
----------------------------------|----------------------------------|----------------------------------|----------------------------------|----------------------------------|----------------------------------|----------------------------------|----------------------------------|----------------------------------|----------------------------------|--4-4-4-4-6-4-7-4-4-4-4-4-6-4-7-4-|--4-4-4-4-6-4-7-4-4-4-4-4-6-4-7-4-|
-------------------|-------------------|-------------------|-------------------|-------------------|-------------------|-------------------|-------------------|--4----------------|-------------------|-------------------|--3----------------|--4----------------|--4----------------|--5----------------|--3----------------|--2----------------|--4----------------|--5----------------|--1----------------|-------------------|--2----------------|--3----------------|-------------------|
------------------|--------------------|--------------------------|------------------|--------------------|--------------------------|------------------|--------------x--x--|--------------------------|------------------|--------------x--x--|--------------6--4--------|------------------|--------------x--x--|--4--6--7--6--------7--6--|------------------|--------------x--x--|--------------------------|
--------------------------|--------------------|-------------------|--------------------------|--------------------|-------------------|--------------------------|--6-----------------|--6----------------|--------------------------|--6------------6----|--6----------------|--------------------------|--4------------6----|--4----------------|--4--4--4--4--4--4--4--4--|---------------4----|-------------------|
-------------------|-------------------|-------------------|-------------------|-------------------|-------------------|-------------------|-------------------|-------------------|--4----------------|--6----------------|-------------------|--2----------------|--4----------------|--6----------------|--6----------------|--2----------------|--2----------------|--4----------------|--6----------------|--0----------------|-------------------|-------------------|--4----------------|
-------------------|-------------------|--------------------|-------------------|-------------------|--------------------|-------------------|--4----------------|--6-----------------|--2----------------|--4----------------|--6--------6--------|--2----------------|--2----------------|--4--------6--------|--0----------------|-------------------|-----------4--------|
-------------------|--------------------|-------------------|-------------------|--------------------|-------------------|--6----------------|--9-----------------|--9----------------|--6----------------|--9------------9----|--9----------------|--4----------------|--7------------9----|--7----------------|-------------------|---------------7----|-------------------|
-------------------|-------------------|-------------------|-------------------|-------------------|-------------------|-------------------|-------------------|-------------------|--7----------------|--9----------------|-------------------|--5----------------|--7----------------|--9----------------|--9----------------|--5----------------|--5----------------|--7----------------|--9----------------|--3----------------|-------------------|-------------------|--7----------------|
-------------------|-------------------|--------------------|-------------------|-------------------|--------------------|-------------------|--7----------------|--9-----------------|--5----------------|--7----------------|--9--------9--------|--5----------------|--5----------------|--7--------9--------|--3----------------|-------------------|-----------7--------|
--------------------|-----------------------------|--------------------|-----------------------------|--9------------9----|-----------------------------|--9------------9----|-----------------------------|--7------------7----|--2--2--2-2-2--2-2-2-2-2--2--|--------------------|-----------------------------|
-----------------------------|-----------------------------|-----------------------------|-----------------------------|-----------------------------|-----------------------------|-----------------------------|-----------------------------|--2--2--2-2-2--2-2-2-2-2--2--|--2--2--2-2-2--2-2-2-2-2--2--|-----------------------------|-----------------------------|
--7---------------------|-----------------------------|-------8----10--8--7----|-----------------------------|-------------------8----|-----------------------------|------------------------|-----------------------------|------------------------|--2--2--2-2-2--2-2-2-2-2--2--|------------------------|-----------------------------|
-----------------------------|-----------------------------|-----------------------------|-----------------------------|-----------------------------|-----------------------------|-----------------------------|-----------------------------|--2--2--2-2-2--2-2-2-2-2--2--|--2--2--2-2-2--2-2-2-2-2--2--|-----------------------------|-----------------------------|
-----------------------------|-------0-----|-------------------|-----------------------------|----0-----0--|-------------------|-----------------------------|-------------|-------------------|--------------------2--------|-------------|-------------------|--2--2--2--2--2--2--2--------|-------------|--8----------------|-----------------------------|-------------|--6----------------|
----------------------------------|----------------------------------|----------------------------------|----------------------------------|----------------------------------|----------------------------------|----------------------------------|----------------------------------|--0-0-0-0-2-0-3-0-0-0-0-0-2-0-3-0-|--0-0-0-0-2-0-3-0-0-0-0-0-2-0-3-0-|----------------------------------|----------------------------------|
----------------------------------|----------------------------------|----------------------------------|----------------------------------|----------------------------------|----------------------------------|----------------------------------|----------------------------------|--4-4-4-4-6-4-7-4-4-4-4-4-6-4-7-4-|--4-4-4-4-6-4-7-4-4-4-4-4-6-4-7-4-|----------------------------------|----------------------------------|
----------------------------------|----------------------------------|----------------------------------|----------------------------------|----------------------------------|----------------------------------|----------------------------------|----------------------------------|----------------------------------|----------------------------------|--4-4-4-4-6-4-7-4-4-4-4-4-6-4-7-4-|--4-4-4-4-6-4-7-4-4-4-4-4-6-4-7-4-|
-------------------|-------------------|----------------------------------|-------------------|-------------------|----------------------------------|--4----------------|-------------------|----------------------------------|--4----------------|--4----------------|----------------------------------|--2----------------|--4----------------|--0-0-0-0-2-0-3-0-0-0-0-0-2-0-3-0-|-------------------|--2----------------|----------------------------------|
----------------------------------|----------------------------------|----------------------------------|----------------------------------|----------------------------------|----------------------------------|----------------------------------|----------------------------------|--0-0-0-0-2-0-3-0-0-0-0-0-2-0-3-0-|--4-4-4-4-6-4-7-4-4-4-4-4-6-4-7-4-|----------------------------------|----------------------------------|
----------------------------------|----------------------------------|----------------------------------|----------------------------------|----------------------------------|----------------------------------|----------------------------------|----------------------------------|--4-4-4-4-6-4-7-4-4-4-4-4-6-4-7-4-|----------------------------------|----------------------------------|--4-4-4-4-6-4-7-4-4-4-4-4-6-4-7-4-|
----------------------------------|-------------------|-------------------|----------------------------------|-------------------|-------------------|----------------------------------|--4----------------|-------------------|----------------------------------|--4----------------|--4----------------|----------------------------------|--2----------------|--4----------------|--4-4-4-4-6-4-7-4-4-4-4-4-6-4-7-4-|-------------------|--2----------------|
-------------------|-------------------|------------------|--------------------|-------------------|-------------------|------------------|--------------------|-------------------|--3----------------|------------------|--------------x--x--|--5----------------|--3----------------|------------------|--------------x--x--|--5----------------|--1----------------|------------------|--------------x--x--|--3----------------|-------------------|------------------|--------------x--x--|
--------------------------|--------------------------|--------------------|--------------------------|--------------------------|--------------------|--------------------------|--------------------------|--6-----------------|--------------6--4--------|--------------------------|--6------------6----|--4--6--7--6--------7--6--|--------------------------|--4------------6----|--------------------------|--4--4--4--4--4--4--4--4--|---------------4----|
-------------------|-------------------|-------------------|-------------------|-------------------|-------------------|-------------------|-------------------|--6----------------|-------------------|--4----------------|--6----------------|--6----------------|--2----------------|--4----------------|--6----------------|--4----------------|--2----------------|--2----------------|--4----------------|-------------------|--0----------------|-------------------|-------------------|
-------------------|-------------------|-------------------|-------------------|-------------------|-------------------|-------------------|-------------------|--4----------------|--6----------------|--2----------------|--4----------------|--6----------------|--2----------------|--2----------------|--4----------------|--0----------------|-------------------|
--------------------|-------------------|--------------------|--------------------|-------------------|--------------------|--6-----------------|--6----------------|--9-----------------|--6--------6--------|--6----------------|--9------------9----|--4--------6--------|--4----------------|--7------------9----|-----------4--------|-------------------|---------------7----|
-------------------|-------------------|-------------------|-------------------|-------------------|-------------------|-------------------|-------------------|--9----------------|-------------------|--7----------------|--9----------------|--9----------------|--5----------------|--7----------------|--9----------------|--7----------------|--5----------------|--5----------------|--7----------------|-------------------|--3----------------|-------------------|-------------------|
-------------------|-------------------|-------------------|-------------------|-------------------|-------------------|-------------------|-------------------|--7----------------|--9----------------|--5----------------|--7----------------|--9----------------|--5----------------|--5----------------|--7----------------|--3----------------|-------------------|
--------------------|--------------------|--------------------|--------------------|--------------------|--------------------|--9-----------------|--9------------9----|--------------------|--9--------9--------|--9------------9----|--2--------5--------|--7--------9--------|--7------------7----|--2--------5--------|-----------7--------|--------------------|--0--------3--------|
--------------------|---------------------|--------------------|--------------------|---------------------|--------------------|--------------------|---------------------|-----------4--------|--7--------2--------|--2---------5--------|--7--------4--------|--7--------2--------|--2---------5--------|--7--------2--------|--5--------0--------|--0------2--3--------|--5-----------------|
--------------------|--------------------|---------------------|--------------------|--------------------|---------------------|--------------------|--------------------|---------------------|--2--------5--------|--7--------2--------|--2---------5--------|--2--------5--------|--7--------2--------|--2---------5--------|--0--------3--------|--5--------0--------|--0------2--3--------|
--------------------|----------|--------------------|--------------------|--------------------|----------|--------------------|--------------------|-----------4--------|----------|--------------------|--------------------|--8--------4--------|----------|--2--------5--------|--7--------2--------|--8--------2--------|----------|--2--------5--------|--7--------2--------|--6-----------------|----------|--0--------3--------|--5--------0--------|
--------------------|--------------------|--------------------|--------------------|--------------------|--------------------|--------------------|-----------4--------|--------------------|--2--------5--------|--7--------4--------|--2--------5--------|--2--------5--------|--7--------2--------|--2--------5--------|--0--------3--------|--5-----------------|--0--------3--------|
--------------------|--------------------|------------------------|--------------------|--------------------|-----------12--7--------|--------------------|--------------------|------------------8-----|--7--------2--------|--2--------5--------|--8------------------9--|--7--------2--------|--2--------5--------|--8---------------------|--5--------0--------|--0--------3--------|--6---------------------|
-------------|--------------8b--8------|----------------------------|-------------|-----------8----------8--|---------------10b--10------|------9h--7--|-------9-----------------|------------9------------9--|-------------|--10---------------------|-------10-------------------|--9----------|-------------------------|--12------------------------|-------------|-------------------------|----------------------------|
--------------------------------|-----------------------|--12-12--12---13--13b--13---12--|-----------------------|--------------------------------|--11--11b-11--9--8--7--|--------------------------------|-----------------------|--------------------------------|-----------------------|--------------------------------|-----------------------|
------------15-13-12-------------|------14-18-14--------------|---------------------15-13-12-13-|----------------14----------|--5------------------------------|----------------------------|---------------------------------|----------------------------|---------------------------------|----------------------------|---------------------------------|----------------------------|
--19--14------19--14------19--14------------------|----------------------|----------16----------16----------16--------------|----------------------|--------------------------------------16----------|----------------------|------------------------------------------16------|----------------------|----------------------------------------------18--|------------18--------|--------------------------------------------------|--19------------------|
---------------------------------|-----------0--5--0--3--0--------------|---------------------------------|--------1-----------------------------|--------0--5--9--5--7------------|-----2--------------------4--0--------|---------------------------------|--2-----------------------------2-----|--3--7---------------------------|-----------------------------------2--|---------------------------------|--------------------------------------|
--------------------3------------|-----------0--5--0--3--0--------------|--------1--5--8--5--0------------|--------1-----------------------------|---------------------------------|-----2--------------------4--0--------|--2--5---------------------------|--2-----------------------------2-----|---------------------------------|-----------------------------------2--|---------------------------------|--------------------------------------|
--------------------------8-12-11-12-8-12-11-12-|--10-13-12-13-10-13-12-13-----------------------|------------------------------------------------|------------------------------------------------|------------------------------------------------|------------------------------------------------|
--------------------------9-12-10-12-9-12-10-12-|--11h7---7----14h11---11----|--11-14-12-14-11-14-12-14-----------------------|----------------------------|------------------------------------------------|----------------------------|------------------------------------------------|----------------------------|------------------------------------------------|----------------------------|------------------------------------------------|----------------------------|
--13---16--14-16-14-----------|--------------------|-------------------|--------------------16--------|--------------------|-------------------|------------------------------|--9-----------------|--9----------------|------------------------------|--9------------9----|--9----------------|------------------------------|--7------------9----|--7----------------|------------------------------|---------------7----|-------------------|
-------------------|-------------------|-------------------|-------------------|-------------------|-------------------|-------------------|-------------------|-------------------|--7----------------|--9----------------|-------------------|--5----------------|--7----------------|--9----------------|--9----------------|--5----------------|--5----------------|--7----------------|--9----------------|--3----------------|-------------------|-------------------|--7----------------|
-------------------|-------------------|--------------------|-------------------|-------------------|--------------------|-------------------|--7----------------|--9-----------------|--5----------------|--7----------------|--9--------9--------|--5----------------|--5----------------|--7--------9--------|--3----------------|-------------------|-----------7--------|
-------------------|--------------------|-------------------|-------------------|--------------------|-------------------|--9----------------|--9-----------------|--9----------------|--9----------------|--9------------9----|--9----------------|--7----------------|--7------------9----|--7----------------|-------------------|---------------7----|-------------------|
-------------------|-------------------|-------------------|-------------------|-------------------|-------------------|-------------------|-------------------|-------------------|--7----------------|--9----------------|-------------------|--5----------------|--7----------------|--9----------------|--9----------------|--5----------------|--5----------------|--7----------------|--9----------------|--3----------------|-------------------|-------------------|--7----------------|
-------------------|-------------------|--------------------|-------------------|-------------------|--------------------|-------------------|--7----------------|--9-----------------|--5----------------|--7----------------|--9--------9--------|--5----------------|--5----------------|--7--------9--------|--3----------------|-------------------|-----------7--------|
--------------------|-----------------------------|--------------------|-----------------------------|--9------------9----|-----------------------------|--9------------9----|-----------------------------|--7------------7----|--2--2--2-2-2--2-2-2-2-2--2--|--------------------|-----------------------------|
-----------------------------|-----------------------------|-----------------------------|-----------------------------|-----------------------------|-----------------------------|-----------------------------|-----------------------------|--2--2--2-2-2--2-2-2-2-2--2--|--2--2--2-2-2--2-2-2-2-2--2--|-----------------------------|-----------------------------|
--7---------------------|-----------------------------|-------8----10--8--7----|-----------------------------|-------------------8----|-----------------------------|------------------------|-----------------------------|------------------------|--2--2--2-2-2--2-2-2-2-2--2--|------------------------|-----------------------------|
-----------------------------|-----------------------------|-----------------------------|-----------------------------|-----------------------------|-----------------------------|-----------------------------|-----------------------------|--2--2--2-2-2--2-2-2-2-2--2--|--2--2--2-2-2--2-2-2-2-2--2--|-----------------------------|-----------------------------|
-----------------------------|----------|-------------------|-----------------------------|----------|-------------------|-----------------------------|----------|-------------------|--------------------2--------|----------|--2----------------|--2--2--2--2--2--2--2--------|----------|--2----------------|-----------------------------|----------|--0----------------|
------------------||------------------||------------------||------------------||------------------||------------------||
Tap to rate this tab
 
# A B C D E F G H I J K L M N O P Q R S T U V W X Y Z