Rhapsody - Holy Thunderforce tab

-------------------------------------------------------------------------------
			     Holy Thunderforce - Rhapsody
-------------------------------------------------------------------------------
ALBUM:DAWN OF VICTORY
TABBER: USER

HOLY THUNDERFORCE

INTRO RIFF 1---------------------------------------|-----------------------------------|---------------------------------------|-----------------------------------|---------------------------------------|-----------------------------------|--15-0-14-0-0-0-12-0-0-0-8-0-10-0-12-0-|--10-0-8-0-0-0-7-0-0-0-5-0-3-0-2-0-|---------------------------------------|-----------------------------------|---------------------------------------|-----------------------------------|
-----------------------|---------------------|-----------------------|---------------------|--10------10------9----|--9--7----7----------|--10------10------8----|--8--7----7----------|--8-------8-------7----|--7--5----5----------|-----------------------|---------------------|
INTRO RIFF 2 1st time 2nd time--------------------------------|--------------------------|--------------| --------------------------------|--------------------------|--------------| --------------------------------|--------------------------|--------------| ----------7----------8----------|--7----10----8--7---------|--5-------5---| --5-5-5-5-5--5-5-5-5-5--5-5-5-5-|--5----------------10--8--|--3-------3---| --------------------------------|--------------------------|--------------|
VERSE RIFF 1 1ST TIME 2ND TIME--------------------|--------------------|---------|--------------|----------|--------------------|--------------------|---------|--------------|----------|--7--------7--------|-----------3--------|--5------|--------------|----------|--7--------7--------|--3--------3--------|--5------|--------------|----------|--5--------5--------|--3--------1--------|--3------|--3--5--7--3--|---/12----|--5--------5--------|--1-----------------|---------|--------------|----------|
VERSE RIFF 2 NOT AT 2ND TIME--------------------|--------------------|------|-----------------|--------------------|--------------------|------|-----------------|--7---7--7----7-----|-----------3--------|--5---|-----------------|--7---7--7----7-----|--3--------3--------|--5---|-----------------|--5---5--5----5-----|--3--------1--------|--3---|-----3--5--7--3--|--5---5--5----5-----|--1-----------------|------|-----------------|
CHORUS--------------------|--------------------|--------------------|--------------------|-----------5--------|-----------7--------|--3--------5--------|--7--------7--------|--3--------3--------|--7--------5--------|--1-----------------|--5-----------------|
--------------------|-------------------|--------------------|-------------------|--3-----------------|--5----------------|--3--------3--------|--5----------------|--1--------3--------|--3----------------|-----------1--------|-------------------|
--------------------|--------------------|--------------------|--------------------|--------------------|--------------------|-----------5--------|-----------7--------|--3-----------------|--3--------5--------|--7--------7--------|--3--------3--------|--3--------3--------|--7--------5--------|--1--------3--------|--1-----------------|--5-----------------|-----------1--------|
-------------------|-------------------|-------------------|-------------------|--5----------------|-------------------|--5----------------|--5----------------|--3----------------|--4----------------|-------------------|-------------------|
CHORUS RIFF CAN ALSO PLAYED AS KEYBOARD SOLO RIFF
GUITAR SOLO1--13----------17-13----13/22--17----------|-----15----15-------15------------18------|--------14----------------------------19--|------------------------------------------|------------------------------------------|------------------------------------------|
--9---------12-9----9/17--12----------|----10---10------10-----------14------|-------9--------------------------14--|--------------------------------------|--------------------------------------|--------------------------------------|
--10----------13----------10----------13----------|-----11p10h11----11p10h11----11p10h11----11p10h11-|--------------------------------------------------|--------------------------------------------------|--------------------------------------------------|--------------------------------------------------|
--5-------8-------5-------8-------|--6-------10-------6-------10-------|----6p5h6---6p5h6---6p5h6---6p5h6-|----8p7h8----8p7h8---8p7h8----8p7h8-|----------------------------------|------------------------------------|----------------------------------|------------------------------------|----------------------------------|------------------------------------|----------------------------------|------------------------------------|
--13----------17----------13----------17----------|--17------18--17------22--|-----15p14h15----15p14h15----15p14h15----15p14h15-|--------------------------|--------------------------------------------------|--------------------------|--------------------------------------------------|--------------------------|--------------------------------------------------|--------------------------|--------------------------------------------------|--------------------------|
--21--18--17--16--17------17--|--17----------------------18--|------------------------------|------18--17--15--14----------|------------------------------|------------------------------|------------------------------|------------------------------|------------------------------|------------------------------|------------------------------|------------------------------|
--17--15--------------------|----------18--17--15--------|----------------------------|----------------------------|----------------------------|----------------------------|
GUITAR SOLO 2
--13----------17-13----13/22--17----------|-----15----15-------15------------18------|--------14----------------------------17--|------------------------------------------|------------------------------------------|------------------------------------------|
--9---------12-9----9/17--12----------|----10---10------10-----------14------|-------9--------------------------14--|--------------------------------------|--------------------------------------|--------------------------------------|
--10----------13----------10----------13----------|-----11-10-11----11-10-11----11-10-11----11-10-11-|--------------------------------------------------|--------------------------------------------------|--------------------------------------------------|--------------------------------------------------|
--5-------8-------5-------8-------|--6-------10-------6-------10-------|----6-5-6---6-5-6---6-5-6---6-5-6-|----8-7-8----8-7-8---8-7-8----8-7-8-|----------------------------------|------------------------------------|----------------------------------|------------------------------------|----------------------------------|------------------------------------|----------------------------------|------------------------------------|
--13----------17----------13----------17----------|--17------18--17------22--|-----15-14-15----15-14-15----15-14-15----15-14-15-|--------------------------|--------------------------------------------------|--------------------------|--------------------------------------------------|--------------------------|--------------------------------------------------|--------------------------|--------------------------------------------------|--------------------------|
--21--18--17--16--17------17--|--17----------------------18--|------------------------------|------18--17--15--14----------|------------------------------|------------------------------|------------------------------|------------------------------|------------------------------|------------------------------|------------------------------|------------------------------|
--17--15--------------------|----------18--17--15--------|----------------------------|----------------------------|----------------------------|----------------------------|
| / slide up | \ slide down | h hammer-on | p pull-off | ~ vibrato | + harmonic | x Mute note ===============================================================================
Tap to rate this tab
 
# A B C D E F G H I J K L M N O P Q R S T U V W X Y Z