Rhapsody - Village Of Dwarves tab

Title: Village Of Dwarves
Band: Rhapsody
Album: Dawn of victory

Any comment: yucon@ciudad.com.ar


(Gaita)

Intro:

1 2E||--------------------------------------|----------------------------------|B||------------------8-------------------|----------------------------------|G||--7--7--9--10--9-----10--9--10--9--7~-|------------------------7~---7~---|D||--------------------------------------|--10--10--9--10--9--10------------|A||--------------------------------------|----------------------------------|E||--------------------------------------|----------------------------------|
3 4--------------------------------------|---------------------------------|------------------8-------------------|---------------------------------|--7--7--9--10--9-----10--9--10--9--7~-|------------------------7~-------|--------------------------------------|--10--10--9--10--9--10-----------|--------------------------------------|---------------------------------|--------------------------------------|---------------------------------|
5--------------------------------------------|------------8------------10--8--10--10--10--|--7--9--10-----10--9--7---------------------|--------------------------------------------|--------------------------------------------|--------------------------------------------|
6 7--------------------------------------|--------------------------------------|--10--8-------------8-----------------|------------10--8---------------------|---------10--9--10-----10--9--7--7~---|--7--9--10---------10--10~-----9--10--|--------------------------------------|--------------------------------------|--------------------------------------|--------------------------------------|--------------------------------------|--------------------------------------|
8--------------------------------|--10--8-------------------------|---------10--9--10--9--7~-------|--------------------------------|--------------------------------|--------------------------------|
---------------------------------------------------------------------------------------------------------------- (Guitar) Intro: || Dm | C Dm || or
1 2 3E||--1----------------|-----------1--------|--1----------------|B||--3----------------|--1--------3--------|--3----------------|G||--2----------------|--2--------2--------|--2----------------|D||--0----------------|--0--------0--------|--0----------------|A||-------------------|--3-----------------|-------------------|E||-------------------|--------------------|-------------------|
4 5 6-----------1--------|--1----------------|-----------1--------|--1--------3--------|--3----------------|--1--------3--------|--2--------2--------|--2----------------|--2--------2--------|--0--------0--------|--0----------------|--0--------0--------|--3-----------------|-------------------|--3-----------------|--------------------|-------------------|--------------------|
7 8 9--1----------------|-----------1--------|------------------------------|--3----------------|--1--------3--------|------------------------------|--2----------------|--2--------2--------|--7-------------7-------------|--0----------------|--0--------0--------|--7-------------7-------------|-------------------|--3-----------------|--5----5--5--5--5----5--5--5--|-------------------|--------------------|------------------------------|
10 11------------------------------|------------------------------|------------------------------|------------------------------|--5-------------7-------------|--7-------------7-------------|--5-------------7-------------|--7-------------7-------------|--3----3--3--3--5----5--5--5--|--5----5--5--5--5----5--5--5--|------------------------------|------------------------------|
12 13------------------------------|------------------------------|------------------------------|------------------------------|--5-------------7-------------|--7-------------7-------------|--5-------------7-------------|--7-------------7-------------|--3----3--3--3--5----5--5--5--|--5----5--5--5--5----5--5--5--|------------------------------|------------------------------|
14 15------------------------------|------------------------------|------------------------------|------------------------------|--5-------------7-------------|--7-------------7-------------|--5-------------7-------------|--7-------------7-------------|--3----3--3--3--5----5--5--5--|--5----5--5--5--5----5--5--5--|------------------------------|------------------------------|
16 17 18 19 20------------------------------|----------|----------|----------|----------|------------------------------|----------|----------|----------|----------|--5-------------7-------------|----------|----------|----------|----------|--5-------------7-------------|----------|----------|----------|----------|--3----3--3--3--5----5--5--5--|----------|----------|----------|----------|------------------------------|----------|----------|----------|----------|
Chorus: || F5 C5 | D5 A5 | F5 C5 | C#5 B5 C#5 D5 || or
21 22------------------------------|------------------------------|------------------------------|------------------------------|----------------5-------------|--7---------------------------|--3-------------5-------------|--7-------------7-------------|--3-------------3----3--3--3--|--5----5--5--5--7-------------|--1----1--1--1----------------|----------------5----5--5--5--|
23 24------------------------------|--------------------------||------------------------------|--------------------------||----------------5-------------|--6----4----6----7--------||--3-------------5-------------|--6----4----6----7--------||--3-------------3----3--3--3--|--4----2----4----5--------||--1----1--1--1----------------|--------------------------||
----------------------------------------------------------------------------------------------------------------(Voice)Chorus: 17 18 19E||------------------------|--------------------------|------------------------|B||------------------------|---------8----------------|------------------------|G||--7------9--10----7---7-|--9--10-----9--10----7----|--7------9--10----7---7-|D||------------------------|--------------------------|------------------------|A||------------------------|--------------------------|------------------------|E||------------------------|--------------------------|------------------------|
20-------------------------|---------8---------------|--9--10-----10--7--------|-------------------------|-------------------------|-------------------------|
----------------------------------------------------------------------------------------------------------------(Violin) 53 54E||-----------------------10-----------|---------------------------------------|B||------------10-------------10--8----|--10--8-------------8------------------|G||--7--9--10------10--9---------------|---------10--9--10-----10h9-9h7h9h7----|D||------------------------------------|---------------------------------------|A||------------------------------------|---------------------------------------|E||------------------------------------|---------------------------------------|
55 56-----------------------10-----------|--------------------------------||------------10-------------10--8----|--10--8-------------8-----------||--7--9--10------10--9---------------|---------10--9--10-----7--------||------------------------------------|--------------------------------||------------------------------------|--------------------------------||------------------------------------|--------------------------------||
Tap to rate this tab
 
# A B C D E F G H I J K L M N O P Q R S T U V W X Y Z