Richard Clayderman - Marriage Damour tab

Marriage D'Amour - Richard Clayderman

hello, this is a popular piece for piano. many people love it.
I found it on a homepage. now i put it here.

seadrop - seadropseadrop@hotmail.com - 3rd mar, 2002



E||-------------------------0-||---0-2-2-3-3-2-2-0-0---------------|B||---------------------------||---------------------0-0---------3-|G||--------0-----0-----0------||*----------0-------0-----0-0-------|D||---------------------------||*----------------------------2-2---|A||-----2-----2-----2-----2---||-------2-------2-------2-------2---|E||--0------------------------||---0-------------------------------|
-----------------------|------------0-0-2-2-----------|--3-1-1-0-1-3-1--------|----1-1-3-3---------3-3-----1-|----------2------2-----|------2-------2---------2-2---|------2-------2-----2--|--0-------0-----0-------------|--0--------------------|------------------------------|-----------------------|--------------------------2---|
-----------------------|----------------------------------------------|--1-0-0---0-1-0----12--|--0------0---0------0---0------1-0-1------1-0-|--------2-----2--------|-------0---2------0---2------0----------0-----|----------0---1--------|-----2---2------2---2------2----------2-------|--------------2--------|-----2----------2----------2-------0----------|--3--------------------|--0----------0----------0---------------------|
------------------0---0----------|--1--1-0-1-2-3--3---3---0--------|---------2------2----------0-----|-----2-------0------4---------4--|--0------------------------------|------------------------3-----2--|
--7------7----7------7----7------8-7-8-------8----|-------8---10------8---10------8-----------8---12-|-----9---9-------9---9-------9---9------9----9----|-----9-----------9-----------9----------10--------|--------------------------------------------------|--0-----------0-----------0-----------------------|
--8--8-----8-9-10--10-12-10-12-7--------|--------12---------------10-------------|-----------9-------11-------------0-----|-----10--------0---------------------4--|--0-------------------------------------|-------------------------------3-----2--|
--3-----------------2-0-2-----------------0---|-------0-0-1-1-------------------0-0--------3-|------------------2----------2-2------0-0-----|---------2------2-------0---------------------|-----2-------0--------------------------------|--0------------------------2-------3------2---|
--0------------------------------|------------------------0--------|-------0-0-2-2------4-2----------|------------------4-----------1--|-----2----------4-------2--4-----|--0----------2-------------------|
--3----3-3-5-5----3-2----------0------------|----------------------5-3----3---3-0--------|---------0----------2------2----------0-----|----------------2-------0------4---------4--|-----2-------0------------------------------|--0--------------------------------3-----2--|
--3----3-3-5-5----3-2----------0---0--------|----------------------5-3----3---3-------0--|---------0----------2------2-------------0--|----------------2-------0------4---------2--|-----2-------0------------------------2-----|--0--------------------------------0--------|
--3----3-3-5-5----3-2----------0------------|----------------------5-3----3---3-0--------|---------0----------2------2----------0-----|----------------2-------0------4---------4--|-----2-------0------------------------------|--0--------------------------------3-----2--|
--3----3-3-5-5----3-2----------0---|--0-----------------|----------------------5-3----3---3-|--------------------|---------0----------2------2-------|-----------------0--|----------------2-------0------4---|--------2-----2-----|-----2-------0---------------------|-----2-----2--------|--0--------------------------------|--0-----------------|
----------------------------------------------|--0------0---0------0---0------1-0-1------1-0-|-------0---2------0---2------0----------0-----|-----2---2------2---2------2----------2-------|-----2----------2----------2-------0----------|--0----------0----------0---------------------|
------------------0---0----------|--1--1-0-1-2-3--3---3---0--------|---------2------2----------0-----|-----2-------0------4---------4--|--0------------------------------|------------------------3-----2--|
--7------7----7------7----7------8-7-8-------8----|-------8---10------8---10------8-----------8---12-|-----9---9-------9---9-------9---9------9----9----|-----9-----------9-----------9----------10--------|--------------------------------------------------|--0-----------0-----------0-----------------------|
--8--8-----8-9-10--10-12-10-12-7--------|--------12---------------10-------------|-----------9-------11-------------0-----|-----10--------0---------------------4--|--0-------------------------------------|-------------------------------3-----2--|
--3----3-3-5-5----3-2----------0------------|----------------------5-3----3---3-0--------|---------0----------2------2----------0-----|----------------2-------0------4---------4--|-----2-------0------------------------------|--0--------------------------------3-----2--|
--3----3-3-5-5----3-2----------0---0--------|----------------------5-3----3---3-------0--|---------0----------2------2-------------0--|----------------2-------0------4---------2--|-----2-------0------------------------2-----|--0--------------------------------0--------|
--3----3-3-5-5----3-2----------0------------|----------------------5-3----3---3-0--------|---------0----------2------2----------0-----|----------------2-------0------4---------4--|-----2-------0------------------------------|--0--------------------------------3-----2--|
--3----3-3-5-5----3-2----------0---|--0----------------0--||----------------------5-3----3---3-|--0-------------------||---------0----------2------2-------|--0-----------0------*||----------------2-------0------4---|--------0------------*||-----2-------0---------------------|-----2-----2-----2----||--0--------------------------------|--0-------------------||
--3----3-3-5-5----3-2----------0---0--------|----------------------5-3----3---3-------0--|---------0----------2------2-------------0--|----------------2-------0------4---------2--|-----2-------0------------------------2-----|--0--------------------------------0--------|
--3----3-3-5-5----3-2----------0------------|----------------------5-3----3---3-0--------|---------0----------2------2----------0-----|----------------2-------0------4---------4--|-----2-------0------------------------------|--0--------------------------------3-----2--|
--3----3-3-5-5----3-2----------0---|--0--------------0--12------||----------------------5-3----3---3-|--------------0-----12------||---------0----------2------2-------|-----------0--------12------||----------------2-------0------4---|--------2-------------------||-----2-------0---------------------|-----2----------------------||--0--------------------------------|--0-------------------------||
Tap to rate this tab
 
# A B C D E F G H I J K L M N O P Q R S T U V W X Y Z