Rippingtons – Native Son From A Distant Land tab

#----------------------------------PLEASE NOTE--------------------------------#
#This file is the author's own work and represents their interpretation of the#
#song. You may only use this file for private study, scholarship, or research.#
#-----------------------------------------------------------------------------#

Date: Fri, 20 Feb 1998 14:26:54 -0500
From: BJ Blick  (by way of cal woods)
Subject: TAB: r/rippingtons/native_son_from_a_distant_land.tab

Song: NATIVE SON FROM A DISTANT LAND
Band: RIPPINGTONS
Album: SAHARA

The verse sections are played on
a clean electric with chorus & reverb.
The chorus sections sound better with
distortion to add sustain.

BJ Blick (wblick@ryker.itech.cup.edu)

Intro / Keyboards

The intro chords and melody line are the same as the verse

First Verse / Guitar

|---------|---------------|-12--12--12--10-------|------------------||-7--8--7-|-7--10--8--7---|----------------12----|--------10--8--10-||---------|-------------9-|-------------------12-|-12--12-----------||---------|---------------|----------------------|------------------||---------|---------------|----------------------|------------------||---------|---------------|----------------------|------------------|
|-----------------------|--------------|----------------||-13--13--13--12--10--8-|-----------10-|-12--12--10--10-||-----------------------|-9--11--12----|----------------||-----------------------|--------------|----------------||-----------------------|--------------|----------------||-----------------------|--------------|----------------|
|---------|-7--10--8--7----7-|-12--12--12--14----|-----------------------||-7--8--7-|-------------10---|----------------15-|-12--12--12--13--12----||---------|------------------|-------------------|--------------------14-||---------|------------------|-------------------|-----------------------||---------|------------------|-------------------|-----------------------||---------|------------------|-------------------|-----------------------|
|-12--12--12-----------|---------------|----------------|------------||------------15--12--8-|---------------|-12--12--10--10-|------------||----------------------|-9--11--12--12-|----------------|-12--11--12-||----------------------|---------------|----------------|------------||----------------------|---------------|----------------|------------||----------------------|---------------|----------------|------------|
First Chorus / Alto Sax
|-----------------------|-------------|------------------------||-----------------------|-------------|---------12--13--12-----||-9--11--12--14--12--11-|-12----------|-12--14--------------14-||-----------------------|------12--14-|------------------------||-----------------------|-------------|------------------------||-----------------------|-------------|------------------------|
|------------|-12--14--15--14--12-----|--------||-15---------|---------------------15-|-13--12-||-----11--12-|------------------------|--------||------------|------------------------|--------||------------|------------------------|--------||------------|------------------------|--------|
||-------------|-12--12--10-|----------------|---------10--10------|||*-10--12--13-|------------|-12--12--10--10-|-12--13-----------12-|||-------------|------------|----------------|---------------------|||-------------|------------|----------------|---------------------|||*------------|------------|----------------|---------------------|||-------------|------------|----------------|---------------------|
|--------------|---------------------15-||--------10-10-|-12--13--17--17--15-----||-12--12-------|------------------------||--------------|------------------------||--------------|------------------------||--------------|------------------------|
1st Ending
|----------|-----------|-8--8--7------------|||----------|-----8--10-|----------8--8--10-*|||-7--9--10-|-10--------|--------------------|||----------|-----------|--------------------|||----------|-----------|-------------------*|||----------|-----------|--------------------||
2nd Ending
|---------------------------|----------------------------||---------------------------|---------------10--10--8--8-||-7--7--10--10--9--9--------|-7--7--10--10---------------||--------------------10--10-|----------------------------||---------------------------|----------------------------||---------------------------|----------------------------|
|--------------------------------|--------------------------------15-||-10--10--13--13--12--12---------|-10--10--13--13--17--17--15--15----||-------------------------12--12-|-----------------------------------||--------------------------------|-----------------------------------||--------------------------------|-----------------------------------||--------------------------------|-----------------------------------|
Second Verse / Guitar
|---------|-7--10--8--7-----7-|-12--12--12--10-------|------------------||-7--8--7-|-------------10----|----------------12----|--------10--8--10-||---------|-------------------|-------------------12-|-12--12-----------||---------|-------------------|----------------------|------------------||---------|-------------------|----------------------|------------------||---------|-------------------|----------------------|------------------|
|-----------------------|--------------|----------------||-13--13--13--12--10--8-|-----------10-|-12--12--10--10-||-----------------------|-9--11--12----|----------------||-----------------------|--------------|----------------||-----------------------|--------------|----------------||-----------------------|--------------|----------------|
|---------|-7--10--8--7----7-|-12--12--12--14----|-----------------------||-7--8--7-|-------------10---|----------------15-|-12--12--12--13--12----||---------|------------------|-------------------|--------------------14-||---------|------------------|-------------------|-----------------------||---------|------------------|-------------------|-----------------------||---------|------------------|-------------------|-----------------------|
|-12--12--12-----------|---------------|--------------------|--------||------------15--12--8-|---------------|-10--12--12--10--10-|--------||----------------------|-9--11--12--12-|--------------------|-12--12-||----------------------|---------------|--------------------|--------||----------------------|---------------|--------------------|--------||----------------------|---------------|--------------------|--------|
Second Chorus / Alto Sax
|-----------------------|-------------|------------------------||-----------------------|-------------|---------12--13--12-----||-9--11--12--14--12--11-|-12----------|-12--14--------------14-||-----------------------|------12--14-|------------------------||-----------------------|-------------|------------------------||-----------------------|-------------|------------------------|
|------------|-12--14--15--14--12-----|--------||-15---------|---------------------15-|-13--12-||-----11--12-|------------------------|--------||------------|------------------------|--------||------------|------------------------|--------||------------|------------------------|--------|
|------------|-12--12--10-|----------------|---------10--10------||-10--12--13-|------------|-12--12--10--10-|-12--13-----------12-||------------|------------|----------------|---------------------||------------|------------|----------------|---------------------||------------|------------|----------------|---------------------||------------|------------|----------------|---------------------|
|--------------|---------------------15-||--------10-10-|-12--13--17--17--15-----||-12--12-------|------------------------||--------------|------------------------||--------------|------------------------||--------------|------------------------|
|----------|-----------|-8--8--7-----------||----------|-----8--10-|----------8--8--10-||-7--9--10-|-10--------|-------------------||----------|-----------|-------------------||----------|-----------|-------------------||----------|-----------|-------------------|
Sax Solo Guitar Solo Third Verse / Guitar
|---------|-7--10--8--7----7-|-12--12--12--14----|-----------------------||-7--8--7-|-------------10---|----------------15-|-12--12--12--13--12----||---------|------------------|-------------------|--------------------14-||---------|------------------|-------------------|-----------------------||---------|------------------|-------------------|-----------------------||---------|------------------|-------------------|-----------------------|
|-12--12--12-----------|---------------|--------------------|--------||------------15--12--8-|---------------|-10--12--12--10--10-|--------||----------------------|-9--11--12--12-|--------------------|-12--12-||----------------------|---------------|--------------------|--------||----------------------|---------------|--------------------|--------||----------------------|---------------|--------------------|--------|
Please rate this tab:
x1.0