Rise Against - Collapse tab version 4

RISE AGAINST - COLLAPSE (POST-AMERIKA)

Tuning: standard or half step down (whatever you find better)

- this tab is based for one guitar only but i 
can help you figure it out for 2 guitars if you need it
Email: turtlemaiil@hotmail.com

PRE - INTRO|--------||--------||--------||--------||--9/11--||--7/9---|
INTRO|-----------------------------------------| X5|-----------------------------------------||-----------------------------------------||------------------------9-9-9-11-11-11---||--11-11-11-9--11-11-11--7-7-7-9--9--9----||--9--9--9--7--9--9--9--------------------|
|----------------------------------------------------||----------------------------------------------------||-------------------------------------------------7--||-------------------------11--11--8--9--11--9--8-----||--12^--12^--12^--12p--9-----------------------------||----------------------------------------------------|
|-----------------------------------------------||-----------------------------------------------||-----------------------------------------------||-----------------------------------------------||--12^--12^--12---------------------------------||----------------12--14--14^--14--11------------|
|-------(x4)|-------| |-----------|-------||-----------|-------||-----------|-------||--9-9-9-9--|--11_--||--7-7-7-7--|--9__--|
PRE - CHORUS|--------------------------------------------------| X2|--------------------------------------------------||--------------------------------------------------||--------------------------------------------------||--7--7--7--9--9--6--6--6--11-11-11-11-11-11-11-11-||--5--5--5--7--7--4--4--4--9--9--9--9--9--9--9--9--|
|---------------------| (play each note eight |---------------------| times over 1 bar)|---------------------||--------6------------||--7--4--4--6--9--11--||--5--2-----4--7--9---|
CHORUS|--------------------------------------------| X4|--------------------------------------------||--------------------------------------------||---------------------------9-9-9-11-11-11---||--9--11-11-11-9--11-11-11--7-7-7-9--9--9----||--7--9--9--9--7--9--9--9--------------------|
PRE - CHORUS|--------------------------------------------------||--------------------------------------------------||--------------------------------------------------||--------------------------------------------------||--7--7--7--9--9--6--6--6--11-11-11-11-11-11-11-11-||--5--5--5--7--7--4--4--4--9--9--9--9--9--9--9--9--|
|-------------------||-------------------||-------------------||-------------------||--7-7-7-7-7-7-7-7--||--5-5-5-5-5-5-5-5--|PM|...............|PM
|--------------------------------------------------||--------------------------------------------------||--------------------------------------------------||--------------------------------------------------||--7--7--7--9--9--6--6--6--11-11-11-11-11-11-11-11-||--5--5--5--7--7--4--4--4--9--9--9--9--9--9--9--9--|
|---------------------| (play each note eight |---------------------| times over 1 bar)|---------------------||--------6------------||--7--4--4--6--9--11--||--5--2-----4--7--9---|
CHORUS|--------------------------------------------| X4|--------------------------------------------||--------------------------------------------||---------------------------9-9-9-11-11-11---||--9--11-11-11-9--11-11-11--7-7-7-9--9--9----||--7--9--9--9--7--9--9--9--------------------|
BRIDGE I|-----------------------------------| X3 |-----------------------------------||-----------------------------------||--6-6-6-9-9-6-6-4------------------||--4-4-4-7-7-4-4-2-2-2-2-4-4-4-4-4--||------------------0-0-0-2-2-2-2-2--|PM|.....| |.....| |.....| |........|PM
|--------------------------------------------------||--------------------------------------------------||--------------------------------------------------||--------------------------------------------------||--9--9--9--9--9--9--9--9--11-11-11-11-11-11-11-11-||--7--7--7--7--7--7--7--7--9--9--9--9--9--9--9--9--|
|-----------------------------------| X3 |-----------------------------------||-----------------------------------||--6-6-6-9-9-6-6-4------------------||--4-4-4-7-7-4-4-2-2-2-2-4-4-4-4-4--||------------------0-0-0-2-2-2-2-2--|PM|.....| |.....| |.....| |........|PM
|--------------------------------------------------||--------------------------------------------------||--------------------------------------------------||--------------------------------------------------||--9--9--9--9--9--9--9--9--11-11-11-11-11-11-11-11-||--7--7--7--7--7--7--7--7--9--9--9--9--9--9--9--9--|
|-----------------------------------| X3 |-----------------------------------||-----------------------------------||--6-6-6-9-9-6-6-4------------------||--4-4-4-7-7-4-4-2-2-2-2-4-4-4-4-4--||------------------0-0-0-2-2-2-2-2--|
|------------||------------||------------||------------||--9_--11_---||--7_--9__---|
SOLO|-------------------------------4-0-2-2------4-0---------||------------------------------------------------2-2/10--||---9-8-4-2_----2/6_----9-8-4-2----------2/6-------------||--------------------------------------------------------||--------------------------------------------------------||--------------------------------------------------------|
|-------------------------------------------||--10-10-10-10-10-10-10-10-9-9-9-9-9-9-9-9--||-------------------------------------------||-------------------------------------------||-------------------------------------------||-------------------------------------------|
|-----------------------------------||--7-7-7-7-7-7-7-7-5-5-5-5-5-5-5-5--||-----------------------------------||-----------------------------------||-----------------------------------||-----------------------------------|
|------------12-12--------| X4|--9-9-10-10-------12-12--||-------------------------||-------------------------||-------------------------||-------------------------|
BRIDGE II|-------------------| (play each note four |-------------------| times over 1 bar)|-------------------||--------6----------||--7--4--4--6--9----||--5--2-----4--7----|
|--------------------------||--------------------------||--------------------------||--------------------------||--11-11-11-11-11-11-11-11-||--9--9--9--9--9--9--9--9--|
CHORUS|--------------------------------------------| X4|--------------------------------------------||--------------------------------------------||---------------------------9-9-9-11-11-11---||--9--11-11-11-9--11-11-11--7-7-7-9--9--9----||--7--9--9--9--7--9--9--9--------------------|
|-------(x4)|-------| |-----------|-------||-----------|-------||-----------|-------||--9-9-9-9--|--11_--||--7-7-7-7--|--9__--|
----------------------- LEGEND _= hold note ^= bend / or \ = slide
Tap to rate this tab
 
# A B C D E F G H I J K L M N O P Q R S T U V W X Y Z