Rise Against – Everchanging tab

                                  EVERCHANGING
                           As recorded by Rise Against
                      (From the 2000 Album TTHE UNRAVELING)

Words and Music by Rise Against
Arranged by -----
Transcribed by Donkey Fly

Intro Q=140 4/4 Gtr I||---------------|--------------|--------------|-----------------||||o--------------|--------------|--------------|----------------o||||---------------|--------------|--------------|-----------------||||------5--------|-----3--------|-----2--------|-0---------------||||o---3----3---3-|---3----3---3-|---3----3---3-|---3-2-3-2------o||||--5--------5---|-1--------1---|-3--------3---|-----------3-----||
Verse||------------------------|-----------------------|||o-----------------------|-----------------------|||------------------------|-----------------------|||------------5-----------|-----------3-----------|||o-----3-----------3---3-|-----3-----------3---3-|||--5-----------------5---|-1-----------------1---|
|
| Gtr II| PM---------------------------------------------||------------------------|-----------------------|||o-----------------------|-----------------------|||------------------------|-----------------------|||------------------------|-----------------------|||o-3-3---3-3-3-3-3-3-3-3-|-3-3---3-3-3-3-3-3-3-3-|||--5-5---5-5-5-5-5-5-5-5-|-1-1---1-1-1-1-1-1-1-1-|
|-----------------------|---------------------------|||-----------------------|--------------------------o|||-----------------------|---------------------------|||-----------2-----------|-0-------------------------|||-----3-----------3---3-|-----3-----2-----3-2------o|||-3-----------------3---|---------------------3-----||
|
|---------------------------------------------||-----------------------|---------------------------|||-----------------------|--------------------------o|||-----------------------|---------------------------|||-2-2---2-2-2-2-2-2-2-2-|-0-0---0-0-0-0-0-0-0-0-----|||-3-3---3-3-3-3-3-3-3-3-|-2-2---2-2-2-2-2-2-2-2----o|||-3-3---3-3-3-3-3-3-3-3-|-3-3---3-3-3-3-3-3-3-3-----||
Gtrs I, II PM-----------------------------------------||----------------------|---------------------|||o---------------------|---------------------|||----------------------|---------------------|||----------------------|---------------------|||o-3-3-3-3-3-3-3-3-3-3-|-3-3-3-3-3-3-3-3-3-3-|||--5-5-5-5-5-5-5-5-5-5-|-1-1-1-1-1-1-1-1-1-1-|
-----------------------------------------|
4x|---------------------|----------------------|||---------------------|---------------------o|||---------------------|----------------------|||-2-2-2-2-2-2-2-2-2-2-|-0-0-0-0-0-0-0-0-0-0--|||-3-3-3-3-3-3-3-3-3-3-|-2-2-2-2-2-2-2-2-2-2-o|||-3-3-3-3-3-3-3-3-3-3-|-3-3-3-3-3-3-3-3-3-3--||
Pre-Chorus Gtr I|-------------------------------|--------------------------||-------------------------------|--------------------------||-12-12-12-12-12-12-12-12-12-12-|-10-10-10-10-10-9-5-5-5-5-||--x--x--x--x--x--x--x--x--x--x-|--x--x--x--x--x-x-x-x-x-x-||-10-10-10-10-10-10-10-10-10-10-|--8--8--8--8--8-7-3-3-3-3-||-------------------------------|--------------------------|
Chorus Gtr I||--------------------|-------------------|||o-------------------|-------------------|||--5-5-5-5-5-5-5-5-5-|-------------------|||--5-5-5-5-5-5-5-5-5-|-5-5-5-5-5-5-5-5-5-|||o-3-3-3-3-3-3-3-3-3-|-5-5-5-5-5-5-5-5-5-|||--------------------|-3-3-3-3-3-3-3-3-3-|
|
| Gtr II||--------------------|-------------------|||o-------------------|-------------------|||--9-9-9-9-9-9-9-9-9-|-7-7-7-7-7-7-7-7-7-|||--x-x-x-x-x-x-x-x-x-|-x-x-x-x-x-x-x-x-x-|||o-7-7-7-7-7-7-7-7-7-|-5-5-5-5-5-5-5-5-5-|||--------------------|-------------------|
|-------------------|-----------------------------||-------------------|-----------------------------||-5-5-5-5-5-5-5-5-5-|-----------------------------||-5-5-5-5-5-5-5-5-5-|--3--3--3--3--3--3--3--3--3--||-3-3-3-3-3-3-3-3-3-|--3--3--3--3--3--3--3--3--3--||-------------------|--1--1--1--1--1--1--1--1--1--|
|
|-------------------|-----------------------------||-------------------|-----------------------------||-9-9-9-9-9-9-9-9-9-|-10-10-10-10-10-10-10-10-10--||-x-x-x-x-x-x-x-x-x-|--x--x--x--x--x--x--x--x--x--||-7-7-7-7-7-7-7-7-7-|--8--8--8--8--8--8--8--8--8--||-------------------|-----------------------------|
|-------------------|-------------------|----------------------------||-------------------|-------------------|----------------------------||-5-5-5-5-5-5-5-5-5-|-------------------|----------------------------||-5-5-5-5-5-5-5-5-5-|-5-5-5-5-5-5-5-5-5-|--3--3--3--3--3--3--3--3--3-||-3-3-3-3-3-3-3-3-3-|-5-5-5-5-5-5-5-5-5-|--3--3--3--3--3--3--3--3--3-||-------------------|-3-3-3-3-3-3-3-3-3-|--1--1--1--1--1--1--1--1--1-|
|
|-------------------|-------------------|----------------------------||-------------------|-------------------|----------------------------||-9-9-9-9-9-9-9-9-9-|-7-7-7-7-7-7-7-7-7-|-10-10-10-10-10-10-10-10-10-||-x-x-x-x-x-x-x-x-x-|-x-x-x-x-x-x-x-x-x-|--x--x--x--x--x--x--x--x--x-||-7-7-7-7-7-7-7-7-7-|-5-5-5-5-5-5-5-5-5-|--8--8--8--8--8--8--8--8--8-||-------------------|-------------------|----------------------------|
1. 2.|-----------------------------||---------------------||----------------------------o||---------------------||-----------------------------||-------------5-------||--3--3--3--3--3--3--3--3--3--||--3--3--3--3-5--5----||--3--3--3--3--3--3--3--3--3-o||--3--3--3--3-3--5----||--1--1--1--1--1--1--1--1--1--||--1--1--1--1----3----|
|
|-----------------------------||---------------------||----------------------------o||---------------------||-10-10-10-10-10-10-10-10-10--||-10-10-10-10---------||--x--x--x--x--x--x--x--x--x--||--x--x--x--x---------||--8--8--8--8--8--8--8--8--8-o||--8--8--8--8---------||-----------------------------||---------------------|
Verse 2 PM-----------------------------------------||----------------------|---------------------|||o---------------------|---------------------|||----------------------|---------------------|||----------------------|---------------------|||o-3-3-3-3-3-3-3-3-3-3-|-3-3-3-3-3-3-3-3-3-3-|||--5-5-5-5-5-5-5-5-5-5-|-1-1-1-1-1-1-1-1-1-1-|
-----------------------------------------|
4x|---------------------|----------------------|||---------------------|---------------------o|||---------------------|----------------------|||-2-2-2-2-2-2-2-2-2-2-|-0-0-0-0-0-0-0-0-0-0--|||-3-3-3-3-3-3-3-3-3-3-|-2-2-2-2-2-2-2-2-2-2-o|||-3-3-3-3-3-3-3-3-3-3-|-3-3-3-3-3-3-3-3-3-3--||
Pre-Chorus Gtr I|-------------------------------|--------------------------||-------------------------------|--------------------------||-12-12-12-12-12-12-12-12-12-12-|-10-10-10-10-10-9-5-5-5-5-||--x--x--x--x--x--x--x--x--x--x-|--x--x--x--x--x-x-x-x-x-x-||-10-10-10-10-10-10-10-10-10-10-|--8--8--8--8--8-7-3-3-3-3-||-------------------------------|--------------------------|
Chorus Gtr I||--------------------|-------------------|||o-------------------|-------------------|||--5-5-5-5-5-5-5-5-5-|-------------------|||--5-5-5-5-5-5-5-5-5-|-5-5-5-5-5-5-5-5-5-|||o-3-3-3-3-3-3-3-3-3-|-5-5-5-5-5-5-5-5-5-|||--------------------|-3-3-3-3-3-3-3-3-3-|
|
| Gtr II||--------------------|-------------------|||o-------------------|-------------------|||--9-9-9-9-9-9-9-9-9-|-7-7-7-7-7-7-7-7-7-|||--x-x-x-x-x-x-x-x-x-|-x-x-x-x-x-x-x-x-x-|||o-7-7-7-7-7-7-7-7-7-|-5-5-5-5-5-5-5-5-5-|||--------------------|-------------------|
|-------------------|-----------------------------||-------------------|-----------------------------||-5-5-5-5-5-5-5-5-5-|-----------------------------||-5-5-5-5-5-5-5-5-5-|--3--3--3--3--3--3--3--3--3--||-3-3-3-3-3-3-3-3-3-|--3--3--3--3--3--3--3--3--3--||-------------------|--1--1--1--1--1--1--1--1--1--|
|
|-------------------|-----------------------------||-------------------|-----------------------------||-9-9-9-9-9-9-9-9-9-|-10-10-10-10-10-10-10-10-10--||-x-x-x-x-x-x-x-x-x-|--x--x--x--x--x--x--x--x--x--||-7-7-7-7-7-7-7-7-7-|--8--8--8--8--8--8--8--8--8--||-------------------|-----------------------------|
|-------------------|-------------------||-------------------|-------------------||-5-5-5-5-5-5-5-5-5-|-------------------||-5-5-5-5-5-5-5-5-5-|-5-5-5-5-5-5-5-5-5-||-3-3-3-3-3-3-3-3-3-|-5-5-5-5-5-5-5-5-5-||-------------------|-3-3-3-3-3-3-3-3-3-|
|
|-------------------|-------------------||-------------------|-------------------||-9-9-9-9-9-9-9-9-9-|-7-7-7-7-7-7-7-7-7-||-x-x-x-x-x-x-x-x-x-|-x-x-x-x-x-x-x-x-x-||-7-7-7-7-7-7-7-7-7-|-5-5-5-5-5-5-5-5-5-||-------------------|-------------------|
|----------------------------|-----------------------------|||----------------------------|----------------------------o|||----------------------------|-----------------------------|||--3--3--3--3--3--3--3--3--3-|--3--3--3--3--3--3--3--3--3--|||--3--3--3--3--3--3--3--3--3-|--3--3--3--3--3--3--3--3--3-o|||--1--1--1--1--1--1--1--1--1-|--1--1--1--1--1--1--1--1--1--||
|
|----------------------------|-----------------------------|||----------------------------|----------------------------o|||-10-10-10-10-10-10-10-10-10-|-10-10-10-10-10-10-10-10-10--|||--x--x--x--x--x--x--x--x--x-|--x--x--x--x--x--x--x--x--x--|||--8--8--8--8--8--8--8--8--8-|--8--8--8--8--8--8--8--8--8-o|||----------------------------|-----------------------------||
Interlude Gtrs I, II >|----------|------------|------------|--------||----------|------------|------------|--------||-5--------|-(5)--------|-(5)--------|-(5)----||-5--------|-(5)--------|-(5)--------|-(5)----||-3--------|-(3)--------|-(3)--------|-(3)----||----------|------------|------------|--------|
|------------|------------|------------|--------||------------|------------|------------|--------||-(5)--------|-(5)--------|-(5)--------|-(5)----||-(5)--------|-(5)--------|-(5)--------|-(5)----||-(3)--------|-(3)--------|-(3)--------|-(3)----||------------|------------|------------|--------|
|-----||-----||-----||-----||-----||-----|
Gtr I||------------------|-------------------------|||o-----------------|-------------------------|||--5-5-5-5-5-5-5-5S|=10-10-10-10-10-10-10-10-|||--x-x-x-x-x-x-x-x-|--x--x--x--x--x--x--x--x-|||o-3-3-3-3-3-3-3-3S|==8--8--8--8--8--8--8--8-|||------------------|-------------------------|
|
| Gtr II| PM-----------------------------------------||------------------|-------------------------|||o-----------------|-------------------------|||------------------|-------------------------|||--5-5-5-5-5-5-5-5-|-------------------------|||o-3-3-3-3-3-3-3-3-|--3--3--3--3--3--3--3--3-|||------------------|--1--1--1--1--1--1--1--1-|
|------------------|------------------||------------------|------------------||-9-9-9-9-9-9-9-10-|-7-7-7-7-7-7-7-7--||-x-x-x-x-x-x-x--x-|-x-x-x-x-x-x-x-x--||-7-7-7-7-7-7-7--8-|-5-5-5-5-5-5-5-5--||------------------|------------------|
|
|----------------------------------||------------------|------------------||------------------|------------------||------------------|------------------||------------------|------------------||-7-7-7-7-7-7-7--7-|-5-5-5-5-5-5-5-5--||-5-5-5-5-5-5-5--5-|-3-3-3-3-3-3-3-3--|
|-----------------|-----------------|-----------------|------------------|||-----------------|-----------------|-----------------|-----------------o|||-5-5-5-5-5-5-5-5-|-----------------|-----------------|------------------|||-x-x-x-x-x-x-x-x-|-3-3-3-3-3-3-3-3-|-5-5-5-5-5-5-5-5-|-5-5-5-5-5-5-5-5--|||-3-3-3-3-3-3-3-3-|-x-x-x-x-x-x-x-x-|-x-x-x-x-x-x-x-x-|-x-x-x-x-x-x-x-x-o|||-----------------|-1-1-1-1-1-1-1-1-|-3-3-3-3-3-3-3-3-|-3-3-3-3-3-3-3-3--||
|
| PM------------------------------------------------------------------||-----------------|-----------------|-----------------|------------------|||-----------------|-----------------|-----------------|-----------------o|||-----------------|-----------------|-----------------|------------------|||-5-5-5-5-5-5-5-5-|-----------------|-----------------|------------------|||-3-3-3-3-3-3-3-3-|-3-3-3-3-3-3-3-3-|-5-5-5-5-5-5-5-5-|-5-5-5-5-5-5-5-5-o|||-----------------|-1-1-1-1-1-1-1-1-|-3-3-3-3-3-3-3-3-|-3-3-3-3-3-3-3-3--||
Outro Gtr I|-------------------------|-------------------------||-------------------------|-------------------------||--5--5--5--5--5--5--5--5-|-------------------------||--5--5--5--5--5--5--5--5-|--3--3--3--3--3--3--3--3-||--3--3--3--3--3--3--3--3-|--3--3--3--3--3--3--3--3-||-------------------------|--1--1--1--1--1--1--1--1-|
|
| Gtr II|-------------------------|-------------------------||-------------------------|-------------------------||-12-12-12-12-12-12-12-12S|=17-17-17-17-17-17-17-17S||--x--x--x--x--x--x--x--x-|--x--x--x--x--x--x--x--x-||-10-10-10-10-10-10-10-10S|=15-15-15-15-15-15-15-15S||-------------------------|-------------------------|
|-------------------------|--------------------------||-------------------------|--------------------------||-------------------------|--------------------------||--7--7--7--7--7--7--7--7-|--5--5--5--5--5--5--5--5--||--7--7--7--7--7--7--7--7-|--5--5--5--5--5--5--5--5--||--5--5--5--5--5--5--5--5-|--3--3--3--3--3--3--3--3--|
|
|-------------------------|--------------------------||-------------------------|--------------------------||-14-14-14-14-14-14-14-14S|=12-12-12-12-12-12-12-12S=||--x--x--x--x--x--x--x--x-|--x--x--x--x--x--x--x--x--||-12-12-12-12-12-12-12-12S|=10-10-10-10-10-10-10-10S=||-------------------------|--------------------------|
|-------------------------|--------------------------||-------------------------|--------------------------||--5--5--5--5--5--5--5--5-|--------------------------||--5--5--5--5--5--5--5--5-|---3--3--3--3--3--3--3--3-||--3--3--3--3--3--3--3--3-|---3--3--3--3--3--3--3--3-||-------------------------|---1--1--1--1--1--1--1--1-|
|
|-------------------------|--------------------------||-------------------------|--------------------------||-12-12-12-12-12-12-12-12S|=/14-14-14-14-14-14-14-14-||--x--x--x--x--x--x--x--x-|---x--x--x--x--x--x--x--x-||-10-10-10-10-10-10-10-10S|=/12-12-12-12-12-12-12-12-||-------------------------|--------------------------|
|-------------------------|-----------------------||-------------------------|-----------------------||-------------------------|-----------------------||--5--5--5--5--5--5--5--5-|--5--5--5--5-5-5-5-5---||--5--5--5--5--5--5--5--5-|--5--5--5--5-5-5-5-5---||--3--3--3--3--3--3--3--3-|--3--3--3--3-3-3-3-3---|
|
|-------------------------|-----------------------||-15-15-15-13-13-13-12-12-|-12-10-10-10-8-8-6-6---||--x--x--x--x--x--x--x--x-|--x--x--x--x-x-x-x-x---||-12-12-12-10-10-10--9--9-|--9--7--7--7-5-5-3-3---||-------------------------|-----------------------||-------------------------|-----------------------|
|-------------------------|-------------------------||-------------------------|-------------------------||--5--5--5--5--5--5--5--5-|-------------------------||--5--5--5--5--5--5--5--5-|--3--3--3--3--3--3--3--3-||--3--3--3--3--3--3--3--3-|--3--3--3--3--3--3--3--3-||-------------------------|--1--1--1--1--1--1--1--1-|
|
|-------------------------|-------------------------||-------------------------|-------------------------||-12-12-12-12-12-12-12-12S|=17-17-17-17-17-17-17-17S||--x--x--x--x--x--x--x--x-|--x--x--x--x--x--x--x--x-||-10-10-10-10-10-10-10-10S|=15-15-15-15-15-15-15-15S||-------------------------|-------------------------|
|-------------------------|--------------------------||-------------------------|--------------------------||-------------------------|--------------------------||--7--7--7--7--7--7--7--7-|--5--5--5--5--5--5--5--5--||--7--7--7--7--7--7--7--7-|--5--5--5--5--5--5--5--5--||--5--5--5--5--5--5--5--5-|--3--3--3--3--3--3--3--3--|
|
|-------------------------|--------------------------||-------------------------|--------------------------||-14-14-14-14-14-14-14-14S|=12-12-12-12-12-12-12-12S=||--x--x--x--x--x--x--x--x-|--x--x--x--x--x--x--x--x--||-12-12-12-12-12-12-12-12S|=10-10-10-10-10-10-10-10S=||-------------------------|--------------------------|
|-------------------------|--------------------------||-------------------------|--------------------------||--5--5--5--5--5--5--5--5-|--------------------------||--5--5--5--5--5--5--5--5-|---3--3--3--3--3--3--3--3-||--3--3--3--3--3--3--3--3-|---3--3--3--3--3--3--3--3-||-------------------------|---1--1--1--1--1--1--1--1-|
|
|-------------------------|--------------------------||-------------------------|--------------------------||-12-12-12-12-12-12-12-12S|=/14-14-14-14-14-14-14-14-||--x--x--x--x--x--x--x--x-|---x--x--x--x--x--x--x--x-||-10-10-10-10-10-10-10-10S|=/12-12-12-12-12-12-12-12-||-------------------------|--------------------------|
|-------------------------|------------------------||-------------------------|------------------------||-------------------------|------------------------||--5--5--5--5--5--5--5--5-|--5--5--5--5-5-5-5--5---||--5--5--5--5--5--5--5--5-|--5--5--5--5-5-5-5--5---||--3--3--3--3--3--3--3--3-|--3--3--3--3-3-3-3--3---|
|
|-------------------------|-------------------10---||-15-15-15-13-13-13-12-12-|-12-10-10-10-8-8-6--x---||--x--x--x--x--x--x--x--x-|--x--x--x--x-x-x-x--7---||-12-12-12-10-10-10--9--9-|--9--7--7--7-5-5-3------||-------------------------|------------------------||-------------------------|------------------------|
>|----------|------------|------------|--------*||----------|------------|------------|--------*||-5--------|-(5)--------|-(5)--------|-(5)----*||-5--------|-(5)--------|-(5)--------|-(5)----*||-3--------|-(3)--------|-(3)--------|-(3)----*||----------|------------|------------|--------*|
|
| >|-8--------|-(8)--------|-(8)--------|-(8)----*||----------|------------|------------|--------*||-5--------|-(5)--------|-(5)--------|-(5)----*||----------|------------|------------|--------*||----------|------------|------------|--------*||----------|------------|------------|--------*|
UPDATED! Added some missing octaves in the choruses and outro, it sounds perfect to me now..... The only thing im not sure about is in the 2nd verse.....is there that intro riff behind them chords? If you know say in the comments please Cheers
Please rate this tab:
x1.0