Riverdance - Lift The Wings tab version 1

Here's another way to play it that might be a bit easier. I use a really easy
fingerpicking all trough.

Verse:|------0--------0--------0--------0--------0-----||------3--------3--------3--------3--------5-----||----2---2----2---2----2---2----4---4----5---5---||--0--------0--------0--------0--------0---------||------------------------------------------------||------------------------------------------------|
|-----0--------0---------0-------||-----3--------0---------3-------||---4---4----0---0-----2---2-----||-0--------0---------0-----------||--------------------------------||--------------------------------|
|------0--------0--------0--------0--------0-----||------3--------3--------3--------3--------5-----||----2---2----2---2----2---2----4---4----5---5---||--0--------0--------0--------0--------0---------||------------------------------------------------||------------------------------------------------|
|-----0--------0---------0-------||-----3--------0---------3-------||---4---4----0---0-----2---2-----||-0--------0---------0-----------||--------------------------------||--------------------------------|
Chorus:
|------3--------3---------3---------2------||------3--------3---------3---------3------||----0---0----0---0-----0---0-----2---2----||-------------------------------0----------||-----------2---------3--------------------||--3---------------------------------------|
|------3--------3---------3---------2------||------3--------3---------3---------3------||----0---0----0---0-----0---0-----2---2----||-------------------------------0----------||-----------2---------3--------------------||--3---------------------------------------|
|-0--0--0--3--0--3--2----||-0--0--1--0--1--0--3----||-0--0--0--0--2--0--2----||----0--------------0----||-------3--2--0----------||-0--------------3-------|
|------3--------3---------0--------0--------||------3--------3---------1--------1--------||----0---0----0---0-----0---0----0---0------||---------------------0--------0------------||--2--------2-------------------------------||-------------------------------------------|
|------3---------3---------0------||------3---------3---------1------||----0---0-----0---0-----2---2----||---------------------------------||----------------------0----------||--3---------3--------------------|
Then vers and chorus again
Tap to rate this tab
 
# A B C D E F G H I J K L M N O P Q R S T U V W X Y Z