Rob Scallon – Teagen tab

  
E||---(2)--(2)--(2)--(2)--(2)--(2)--(2)--(2)--(2)--(2)--(2)--(2)--|B||----------------------------------2----------------------------|G||*------------------2-----------------------------2-------------|D||*---0----------------------------------------------------------|A||---------------------------------------------------------------|E||---------------------------------------------------------------|
--(2)--(2)--(2)--(2)--(2)--(2)--(2)--(2)--(2)--(2)--(2)--(2)--|---------------------------------3----------------------------|------------------2-----------------------------2-------------|---0----------------------------------------------------------|--------------------------------------------------------------|--------------------------------------------------------------|
--(3)--(3)--(3)--(3)--(3)--(3)--(3)--(3)--(3)--(3)--(3)--(3)--|---------------------------------5----------------------------|------------------4-----------------------------4-------------|---0----------------------------------------------------------|--------------------------------------------------------------|--------------------------------------------------------------|
--(3)--(3)--(3)--(3)--(3)--(3)--(3)--(3)--(3)--(3)--(3)--(3)--|---------------------------------3----------------------------|------------------4-----------------------------4-------------|---0----------------------------------------------------------|--------------------------------------------------------------|--------------------------------------------------------------|
--(5)--(5)--(5)--(5)--(5)--(5)--(5)--(5)--(5)--(5)--(5)--(5)--|---------------------------------7----------------------------|------------------6-----------------------------6-------------|---0----------------------------------------------------------|--------------------------------------------------------------|--------------------------------------------------------------|
--(5)--(5)--(5)--(5)--(5)--(5)--(5)--(5)--(5)--(5)--(5)--(5)--|---------------------------------7----------------------------|------------------6-----------------------------6-------------|---0----------------------------------------------------------|--------------------------------------------------------------|--------------------------------------------------------------|
--(3)--(3)--(3)--(3)--(3)--(3)--(3)--(3)--(3)--(3)--(3)--(3)--|---------------------------------5----------------------------|------------------6-----------------------------6-------------|---0----------------------------------------------------------|--------------------------------------------------------------|--------------------------------------------------------------|
--(3)--(3)--(3)--(3)--(3)--(3)--(3)--(3)--(3)--(3)--(3)--(3)---||---------------------------------5-----------------------------||------------------6-----------------------------6-------------*||---0----------------------------------------------------------*||---------------------------------------------------------------||---------------------------------------------------------------||
--(10)--(10)--(10)--(10)--(10)--(10)--(10)--(10)--(10)--(10)--(10)--(1----------------------------------------7---------------------------------------------------7-----------------------------------7---------------0-------------------------------------------------------------------------------------------------------------------------------------------------------------------------------------------------------------
--(9)--(9)--(9)--(9)--(9)--(9)--(9)--(9)--(9)--(9)--(9)--(9)--|---------------------------------7----------------------------|------------------7-----------------------------7-------------|---0----------------------------------------------------------|--------------------------------------------------------------|--------------------------------------------------------------|
--(7)--(7)--(7)--(7)--(7)--(7)--(7)--(7)--(7)--(7)--(7)--(7)--|---------------------------------7----------------------------|------------------7-----------------------------7-------------|---0----------------------------------------------------------|--------------------------------------------------------------|--------------------------------------------------------------|
--(5)--(5)--(5)--(5)--(5)--(5)--(5)--(5)--(5)--(5)--(5)--(5)--|---------------------------------7----------------------------|------------------6-----------------------------6-------------|---0----------------------------------------------------------|--------------------------------------------------------------|--------------------------------------------------------------|
--(3)--(3)--(3)--(3)--(3)--(3)--(3)--(3)--(3)--(3)--(3)--(3)--|---------------------------------5----------------------------|------------------4-----------------------------4-------------|---0----------------------------------------------------------|--------------------------------------------------------------|--------------------------------------------------------------|
--(3)--(3)--(3)--(3)--(3)--(3)--(3)--(3)--(3)--(3)--(3)--(3)--|---------------------------------5--------------3-------------|------------------4-------------------------------------------|---0----------------------------------------------------------|--------------------------------------------------------------|--------------------------------------------------------------|
--(2)--(2)--(2)--(2)--(2)--(2)--(2)--(2)--(2)--(2)--(2)--(2)--|---------------------------------2----------------------------|------------------2-----------------------------2-------------|---0----------------------------------------------------------|--------------------------------------------------------------|--------------------------------------------------------------|
--(5)--(5)--(5)--(5)--(5)--(5)--(3)--(3)--(3)--(3)--(3)--(3)--|---7-----------------------------5----------------------------|---6-----------------------------4----------------------------|---0-----------------------------0----------------------------|--------------------------------------------------------------|--------------------------------------------------------------|
--(2)--(2)--(2)--(2)--(2)--(2)--(2)--(2)--(2)--(2)--(2)--(2)--|---------------------------------2----------------------------|------------------2-----------------------------2-------------|---0----------------------------------------------------------|--------------------------------------------------------------|--------------------------------------------------------------|
--(2)--(2)--(2)--(2)--(2)--(2)--(2)--(2)--(2)--(2)--(2)--(2)--|---------------------------------3----------------------------|------------------2-----------------------------2-------------|---0----------------------------------------------------------|--------------------------------------------------------------|--------------------------------------------------------------|
--(3)--(3)--(3)--(3)--(3)--(3)--(3)--(3)--(3)--(3)--(3)--(3)--|---------------------------------5----------------------------|------------------4-----------------------------4-------------|---0----------------------------------------------------------|--------------------------------------------------------------|--------------------------------------------------------------|
--(3)--(3)--(3)--(3)--(3)--(3)--(3)--(3)--(3)--(3)--(3)--(3)--|---------------------------------3----------------------------|------------------4-----------------------------4-------------|---0----------------------------------------------------------|--------------------------------------------------------------|--------------------------------------------------------------|
--(5)--(5)--(5)--(5)--(5)--(5)--(5)--(5)--(5)--(5)--(5)--(5)--|---------------------------------7----------------------------|------------------6-----------------------------6-------------|---0----------------------------------------------------------|--------------------------------------------------------------|--------------------------------------------------------------|
--(5)--(5)--(5)--(5)--(5)--(5)--(5)--(5)--(5)--(5)--(5)--(5)--|---------------------------------7----------------------------|------------------6-----------------------------6-------------|---0----------------------------------------------------------|--------------------------------------------------------------|--------------------------------------------------------------|
--(5)--(5)--(5)--(5)--(5)--(5)--(5)--(5)--(5)--(5)--(5)--(5)--|---------------------------------7----------------------------|------------------6-----------------------------6-------------|--------------------------------------------------------------|---0----------------------------------------------------------|--------------------------------------------------------------|
--(5)--(5)--(5)--(5)--(5)--(5)--(5)--(5)--(5)--(5)--(5)--(5)--|---------------------------------7----------------------------|------------------8-----------------------------8-------------|--------------------------------------------------------------|---0----------------------------------------------------------|--------------------------------------------------------------|
--(12)--(12)--(12)--(12)--(12)--(12)--(12)--(12)--(12)--(12)--(12)--(1----------------------------------------9---------------------------------------------------9-----------------------------------9-----------------------------------------------------------------------------------------------------------------------------------------------------------0-----------------------------------------------------------------
--(11)--(11)--(11)--(11)--(11)--(11)--(11)--(11)--(11)--(11)--(11)--(1----------------------------------------9---------------------------------------------------9-----------------------------------9-----------------------------------------------------------------------------------------------------------------------------------------------------------0-----------------------------------------------------------------
--(9)--(9)--(9)--(9)--(9)--(9)--(9)--(9)--(9)--(9)--(9)--(9)--|---------------------------------9----------------------------|------------------9-----------------------------9-------------|--------------------------------------------------------------|--------------------------------------------------------------|---0----------------------------------------------------------|
--(7)--(7)--(7)--(7)--(7)--(7)--(7)--(7)--(7)--(7)--(7)--(7)--|---------------------------------9----------------------------|------------------8-----------------------------8-------------|--------------------------------------------------------------|--------------------------------------------------------------|---0----------------------------------------------------------|
--(5)--(5)--(5)--(5)--(5)--(5)--(5)--(5)--(5)--(5)--(5)--(5)--|---------------------------------7----------------------------|------------------6-----------------------------6-------------|--------------------------------------------------------------|--------------------------------------------------------------|---0----------------------------------------------------------|
--(5)--(5)--(5)--(5)--(5)--(5)--(5)--(5)--(5)--(5)--(5)--(5)--|---------------------------------7--------------5-------------|------------------6-------------------------------------------|--------------------------------------------------------------|--------------------------------------------------------------|---0----------------------------------------------------------|
--(4)--(4)--(4)--(4)--(4)--(4)--(4)--(4)--(4)--(4)--(4)--(4)--|---------------------------------4----------------------------|------------------4-----------------------------4-------------|--------------------------------------------------------------|--------------------------------------------------------------|---0----------------------------------------------------------|
--(4)--(4)--(4)--(4)--(4)--(4)--(4)--(4)--(4)--(4)--(4)--(4)--|---------------------------------5----------------------------|------------------4-----------------------------4-------------|---6----------------------------------------------------------|--------------------------------------------------------------|--------------------------------------------------------------|
--(4)--(4)--(4)--(4)--(4)--(4)--(4)--(4)--(4)--(4)--(4)--(4)--|---------------------------------4----------------------------|------------------4--------------4--------------4-------------|---6-----------------------------6----------------------------|---7----------------------------------------------------------|---0----------------------------------------------------------|
--(4)--(4)--(4)--(4)--(4)--(4)--4--------|-----------||--------------------------------5--------|-----------||------------------4-------------4--------|-----------||---6----------------------------6--------|-----------||---7----------------------------7--------|-----------||---0----------------------------0--------|-----------||
Duration Legend --------------- W - whole H - half Q - quarter E - 8th S - 16th T - 32nd X - 64th . - note dotted |-n-| - n-tuplets Tablature Legend ---------------- L - tied note x - dead note g - grace note (n) - ghost note > - accentuded note NH - natural harmonic AH - artificial harmonic TH - tapped harmonic SH - semi harmonic PH - pitch harmonic h - hammer on p - pull off b - bend br - bendRelease pb - preBend pbr - preBendRelease brb - bendReleaseBend \n/ - tremolo bar dip \n - tremolo bar dive -/n - tremolo bar Release up /n\ - tremolo bar inverted dip /n - tremolo bar return -\n - tremolo bar Release down S - shift slide s - legato slide / - slide into from below or out of upwards \ - slide into from above or out of downwards ~ - vibrato W - wide vibrato tr - trill TP - tremolo picking T - tapping S - slap P - pop < - fade in ^ - brush up v - brush down
Please rate this tab:
x1.0