Rob Thomas - Streetcorner Symphony tab

 
Rob Thomas - StreetCorner Symphony          [tabbed by tuluks]
----------------------------------

tuning - half-step down************************************

can hear two gitars playing but tabbed for 1 gitar.
one gitar is playing like the reggae style chords and other is just fill-in.

tuning - half-step down***********************************


Intro
-----  (best to be done with fingers)

|----------------------------------------||---5----5--5--5----5--5--5----5-----3---||---6p4--4-----6p4--4-----6p4--4--2--2---||-----------7----------7-------------0---||----------------------------------------||----------------------------------------|
|-----------------------------||---5----5--5--5----5--3--3---||---6p4--4-----6p4--4--2--4---||-----------7-----------------||-----------------------------||-----------------------------|
Verse -----
A C#m7|------5--------------------------------------4--||------5--------------------------------------5--||------6---------------2--2h4--4/6------------4--||--------------2--2h4---------------7------------||---------2/4------------------------------------||---5--------------------------------------------| It's morning I wake up
G D A|------3----------------------3---------------------------5--||------3----------------------3--------3-----3--5--3--2---5--||------4----------------------4--------2-----2--4--2--2---6--||---5------------------------------2h4---2h4-----------------||------------------------------------------------------------||------------------------------------------------------------| The taste of summer sweetness on my mind
A|-----------------------5--||-------------2--2--3---5--||-------------2--2--4---6--||--------------------------||--------------------------||--------------------------| It's a clear day
C#m7 G|------------------------3--||------------------------3--||------------2--4--------4--||-------2h4--------5--------||---------------------------||---------------------------|In this city Let's go dance under the street lights
D|----------------2------------------||----------------3------------------||----------------2--------5-4-2-4---||-------5--7--4-----------5-5-4-5---||--5h7------------------------------||-----------------------------------| All the people in this world
Bm|----------------------------| |---------7---7---7---7------| |---------7---7---7---7------| |---------9---9---9---9------| |----------------------------| |----------------------------|Let's come together More than ever
D I can feel it
|---------------------| |---------------------| |-------2--4p2-----2--| |--2h4----------4-----| |---------------------| |---------------------| Can you feel it
Chorus ------ (several guitars playing here but i just give the notes)
chords for chorus (gtr2) |--9----7----9----7----5-- A |--10---7----10---7----5--Come on over |--9----7----9----7----7--
C#m |-------------------------|----------------------------| |-------------------------|--5----5--------------------| |-------------------------|--4h6--4--------6-4--2------| |--------------7--------4-2--| |0---------------------------| |----------------------------|
Down to the corner G D |----------------------------| |-------------3----3---------| |-------------2h4--2---------| |----------------------------| |----------------------------| |----------------------------| My sisters and my brothers of every different color
A Can't you feel that sunshine
C#m|----------------------------| |--5----5--------------------| |--4h6--4--------6-4--2------| |--------------7--------4-2--| |0---------------------------| |----------------------------| telling you to hold tight
G D |----------------------------| |-------------3----3---------| |-------------2h4--2---------| |----------------------------| |----------------------------| |----------------------------| Things will be alright Try to find a better life
ACome on over C#m |----------------------------| |--5----5--------------------| |--4h6--4--------6-4--2------| |--------------7--------4-2--| |0---------------------------| |----------------------------| Down to the corner
G D |----------------------------| |-------------3----3---------| |-------------2h4--2---------| |----------------------------| |----------------------------| |----------------------------| My sisters and my brothers there for one another want you
ACome on over C#m Bm D |---------------------| |---------------------| |-------2--4p2-----2--| |--2h4----------4-----| |---------------------| |---------------------|Man I know you wanna let yourself go
[Repeat Intro] verse 2 ------- (some parts from v1 are similar here) A Some people C#m7 It's a pity G They go all their lives and never know D How to love or to let love go A But it's alright now C#m7 We'll make it through this somehow G And we'll paint the perfect picture D Bm All the colors of this world will run together more than ever D I can feel it Can you feel it (chorus)
guitar2 play this before/during solo and repeat:|------------------------------------------||---8p7--7--8--8p7--7--8--8p7--7--8--5--5--||---9p7--7--9--9p7--7--9--9p7--7--8--6--6--||------------------------------------------||------------------------------------------||------------------------------------------|
Solo (Em) ----
|-----------------------------|-------------------------||---10/11-10p8----------------|---------------8---------||--------------9--9p7---------|------------------9------||---------------------9-7-----|--------7----9-----(9)\--||-------------------------10--|--7-10----10-------------||-----------------------------|-------------------------|
|---------------------------------|------------------------||--15-17~~-10--10p8-----8---------|--11b10-8-----8-10-8----||--------------------9-----9p7----|----------9-9--------9\-||------------------------------9\-|------------------------||---------------------------------|------------------------||---------------------------------|------------------------|
|----------------------------------|--15-------------------||--15------------------------------|-----------------------||------15b14-12-----12-15b14-12----|-----15b14-12-14-12-9~-||---------------14--------------14-|-----------------------||----------------------------------|-----------------------||----------------------------------|-----------------------|
D C#m7 Bm A We may never find our reason to shine D C#m7 Bm A But here and now this is our time D C#m7 Bm A And I may never find the meaning of life D C#m7 Bm But for this moment I am fine D So (End with chorus) ************************************************************* hope you enjoy... will update wen i listen more... kid©2007™ *************************************************************
Tap to rate this tab
 
# A B C D E F G H I J K L M N O P Q R S T U V W X Y Z