Robert Euvino – Castlejam tab

Capo on 2nd
Credits to youtube user balchot for loading these tabs on youtube.

intro:

 a       C       D       a G a

----------------------------------|----------------------------------|-2---2-------0---2---2---2-0-2----|-----2---2---2---0---0---2-0-2----|-0---0---3---3-------0---0---0----|---------------------------3------|
a C D a G a
---------0---0---2---2---0--------|-1---1---1---1---3---3---1-0-1----|-2---2---0---0---2---2---2-0-2----|-2---2-----------0---0-----0-2----|-0---0---3---3-----------0---0----|---------------------------3------|
a C D a G a
--------------------------------0-|----------------------------------|-2---2-------0---2---2---2-0-2----|-2---2---2---2---0---0---2-0-2----|-0---0---3---3---0---0---0---0----|---------------------------3------|
theme 1: a C D C G a
-5---5--7-3-0-0---2-3-2-0-------------|-5---5----1---1---3-------3-1-0-------|-5---5----0---0---2-----2---0-0-2-----| x2--------------2---0---------2-0-2-----|-0---7----3-----------------3---0-----|------------------------------3-------|
a C d C G a
---------0----0-0-1-0--0---1-3-1--0-1-0------------|---0-1-3----3---1------1---3------3------1-0-------|-2--------------0------0---2------2------0-0-2-----| x3-----------------------2---0------0------2-0-2-----|-0-------0------3------------------------3---0-----|-------------------------------------------3-------|
a C d C G a
-5--------------0-1-0--0-------------0--------------|-5-8-5-6-5----5-1------1---3---0-1-3---3---1-0------|-5-------5--7---0------0-----2-----2-----2-0-0-2----|-----------------------2---0-------0-------2-0-2----|-0-------0------3--------------------------3---0----|---------------------------------------------3------|
theme 2: a b C D b C
---------0-2-3-0-2--3-2-----0---2-----|-1-----3-1---1---3------3---1---------|-2-2-4---0---0---2------2-4-0---------|-2---4-----------0------0-4-----------|-0---2---3---3------------2-3---------|--------------------------------------|
e D C b a G a B7
-3--2-0-2---0-------------------------------2---|-0------3-3-1--3-1-0------0-1-0-----1-1-4-5-----|-0------2---0----------2--------2-0-2-2-2-------|--------0---------------------------2-2-4-------|------------3------2---0------------0-0-2-------|-0----------------------------3-----------------|
e D C b a G b e
-3--2-0-2---0--------------------------------|-0------3-3-1--3-1-0------0-1-0--------------|-0------2---0----------2--------2-0----------|--------0---------------------------4-4-2----|------------3------2---0------------2-2------|-0----------------------------3---------0----|
Please rate this tab:
x1.0