Robert Schumann – Op 99 tab

Feuilles Variees, Op 99 - Robert Schumann (1810-1856)
Arranged by Francisco Tarrega

Tabbed by ocajinoj - http://www.powertabs.net/profile.php?id=511

Legend below tab

Tuning: E A D G B E   -   Time: 4/4   -   Key: A


0 | . . . | . . . | . . . | . . .|-----------------------------------14====12p9-----||-----------------------------------------------10-||--------------------------------------------------||--------------------------------------------------||--------------------------------------------------||--------------------------------------------------|
1 | . . . | . . . | . . . | . . .|--------------------------7-----------9-----------||--10----------9-----10-------5-----5--------------||*----9-----9-----7-----7--7-----7--------7-----7--||*-12----12----9------7----------------6-----6-----||--------------------------------------------------||---0----------------------------------------------|
2 | . . . | . . . | . . . | . . .|--5--------------------------0--12-------9--------||-----5-----5--5-----------------------------10p7--||--6-----6-----------------6--------9--------------||-----------------7-----7--7-----11-------7--------||--------------7-----7-----0===========7===========||--5-----------------------------------------------|
arp3 | . . . | . . . | . . . | . . .|--------------------------7-----------------------||-----------------------------------------------10-||--9-----------7-----------7--7-----7--------------||--7--9--7--9-----7-----7--9-----9--------7-----7--||--------------9-----9-----------------8-----8-----||--7-----------------------10----------------------|
4 | . . . | . . . | . . . | . . .|--------------------------------14=======12p9-----||--10----------9--------------------------------10-||-----7-----7-----------------9-----9--------------||---9----9--------6-----6--11----11----------------||--------------7-----7-----------------------------||---0----------------------0==========<12>---------|
5 | . . . | . . . | . . . | . . .|--------------------------7-----------9-----------||--10----------9-----10-------5-----5--------------||-----9-----9-----7-----7--7-----7--------7-----7--||--12----12----9-----7-----------------6-----6-----||--------------------------------------------------||--0-----------------------------------------------|
6 | . . . | . . . | . . . | . . .|--5-----------------------4-----------0-----------||--------------4===========---4-----4-----0--------||--2--5--2--5-----2-----2--4-----4--------------5--||--------------------4-----------------6-----6-----||--------------------------------------------------||--2-----------------------4-----------------------|
7 | . . . | . . . | . . . | . . .|--9-----------12----------7-----------------------||--7--7-----7--7--7-----7-----7-----7--7--9--7--9--||--9-----9-----9-----9-----9-----9-----8-----------||--------------8-----------------------7-----------||--0-----------------------------------7-----------||--------------------------7-----------------------|
8 | . . . | . . . | . . . | . . .|--------------------------7--9--10-11-14-12p9-----||--7--9--7--9--10-11-10-11-9-------------------10--||--8-----------------------7----------------------*||--9----------------------------------------------*||--------------------------7-----------------------||--0-----------------------------------------------|
9 | . . . | . . . | . . . | . . .|--------------------------12-------------0--------||--10----------8--------------8-----8-----------8--||*-7--9--7--9-----7-----7--9-----9-----6-----------||*-------------9-----9-----------------------------||--------------------------------------------------||--7-----------------------9-----------------7-----|
arp10 | . . . | . . . | . . . | . . .|-----0-----0-----0-----0--------------10----------||--8-----------7--------------7-----7-----------7--||--6-----6-----6-----6-----7-----7-----7-----------||--------------4-----------------------9--9-----9--||--------------------------------------9-----9-----||--6-----------------------7-----------------------|
11 | . . . | . . . | . . . | . . .|--------------0-----------------------------------||--7-----------------------3-----------2-----------||-----------------0-----0-----3-----3-----0-----0--||--9--9-----9--------2-----4-----4-----2-----2-----||--10----10----------------------------------------||--0=======================2-----------------------|
12 | . . . | . . . | . . . | . . .|--------------------------------17=======14p10----||--2-----------3--------------0--0--------------12-||-----3-----3-----4-----4--------11----------------||--4-----4-----4-----4-----0-----12---0------------||--2=======================------------------------||--------------------------------------------------|
13 | . . . | . . . | . . . | . . .|--------------------------7-----------8-----------||--10----------9-----10-------5-----5--------------||-----7-----7-----7-----7--7-----7--------7-----7--||--9-----9-----9-----7-----------------6-----6-----||--8-----------------------------------------------||--------------------------0-----------------------|
AH AH14 | . . . | . . . | . . . | . . .|--9----------5<17>--------5----------5<17>--------||-----5-----5-----5-----5--------------------------||--6-----6-----------6-----4--4-----4-----4-----4--||--5-----------------------4-----7-----------7-----||--0-----------------------6=======================||--------------------------------------------------|
15 | . . . | . . . | . . . | . . .|--0-----------12----------------0-----7-----------||-----------------------------------7--9--10-9--10-||--6--7--6--7--------------9--11-------7-----------||--6-----------11-12-11-12=======------------------||--------------------------------------0-----------||--0-----------0=======================------------|
1_______________________________________________16 | . . . | . . . | . . . | . . .|--7--9--10-11-12-14-15-16-17----14=======12p9-----||--9--------------------------------------------10-||--------------------------14---------------------*||--9----------------------------------------------*||--0========================0----------------------||--------------------------------------------------|
2_______________________________________________ | . . . | . . . | . . . | . . .||-7--9--10-11-12-14-15-16-17====-----------------||||-9----------------------------------------------||||-------------------------14====-----------------||||-9----------------------------------------------||||-0=======================0=====-----------------||||------------------------------------------------||
Legend ------
|----- -----||----- -----||*---- ----*| repeat this section|*---- ----*||----- -----||----- -----|
= - note held p - pull-off arp - arpeggiate upwards (from 6th string to 1st string) <12> - natural harmonic on 12th fret AH - artificial harmonic 5<17> - artificial harmonic, left hand 5th fret, octave harmonic on 17th fret 1____________ only play first time through 2____________ only play when repeating section
Please rate this tab:
x1.0