Rocksteddy - Deadma tab version 1

Deadma ver. 1 (Minus Spoken Part)

Rocksteddy

|---------------------------------------------------|
| '&' || # || # Tabbed by Don Michael Acelar De Leon || _#_ Eighteen Na Ako Sa November 7!!! || ( # ) || / O \ donmichael001@yahoo.com || ( === ) || `---' ||---------------------------------------------------|
Guitar 1--Rhythm, Crank Distortion Guitar 2--Lead, "Juven Pelingon" tone (very sweet distortion, slight phaser) Intro "Matagal..." Guitar 1
|-----------------------------||-----------------------------||-----------------------------||-----------------------------|(palm muted) 2x|-5-(7x)----------------------||--------3-(9x)-2-(8x)-3-(8x)-|
"Nahihirapan..." Enter Drums, Bass, Guitar 2 Verse Chords
|------------||------------||-7~---------||-7~-5~-4~-5-| 2x|-5~-5~-5~-5-||----3~-2~-3-|
Prechorus "Dahil..."
|--------0-----3--3-||--------0-----3--3-||--------0-----2--0-||--------2-----0--0-| repeat first two chords, then|--------2-----x--x-||-3-2-0~~0-2~~-2--3-|
"Sa iyo!"
|-----------------------------------------------------||-----------------------------------------------------||-------------------------------------------------2~/-||-------------------------------------------------2~/-||---------------------------------0-0-0-0-0-0-0-0-0~/-||-3-3-3-2-2-2-3-3-3-2-2-2-3-3-2-2---------------------|
Chorus "Mahal kita..."
|-------------||-------------||-7~----------||-7~-9~-7~-5~-| 4x|-5~-9~-7~-5~-||----7~-5~-3~-|
Interlude--Do Chorus Chords Verse 2--Do Verse Chords Prechorus Chorus And The Guitar Solo Everyone Wants To Nail... Guitar 2
|-----------------------------------------------------------------------------||-15-15-15----------------------15-15-----------------------------------------||----------14~~---11-12--12s14~--------12-12h14~-12---11h12-------------------||-----------------------------------------------------------12s14~--12-12~~/--||-----------------------------------------------------------------------------||-----------------------------------------------------------------------------|
|----------------------------------------------||----------------------------------------------||-14s16~-12------------------------------------||-----------14b16r14-12------------------------||-----------------------14b16r14-12-14-12~~~/--||----------------------------------------------|
|----------------14-17s19~~p14------------------------------||-------------15---------------15---------------------------||----------14---------------------14------------------------||-------16---------------------------16-------------12~~~/--||-14-14---------------------------------/14~--12-14---------||-----------------------------------------------------------|
|-------------------------------------------12h15-------12h14h17-17p14p12---------14------------------||-------------------------------------12s15-------15h17-------------------15-17~~----17b19r17--15~~~/-||-------------------11----------11s14-----------------------------------------------------------------||-------------11-14----14-11-14-----------------------------------------------------------------------||----10-12-14-----------------------------------------------------------------------------------------||-10--------------------------------------------------------------------------------------------------|
|-------------------------------------------------||-------------------------------------------------||-14s16~~-14-12-14-12/--/11-11h12p11--------------||------------------------------------14-12-14~~~~-||-------------------------------------------------||-------------------------------------------------|
|----------------------14h17t22p17p14----------------------||-------------------15----------------15----17b19r17-17~~~-||-14-------------14----------------------14----------------||----16-------16-------------------------------------------||-------14~------------------------------------------------||----------------------------------------------------------|
Juven is a shred god. Final Prechorus "Sa Iyo...."
|-------------------------------------------------------------||-------------------------------------------------------------||---------------------------------------------------------2~/-||---------------------------------------------------------2~/-| (break)|-----------------------------------------0-0-0-0-0-0-0-0-0~/-||-3-3-3-2-2-2-3-3-3-2-2-2-3-3-2-2(repeat)---------------------|
Guitar 1 Solo "Mahal kita..."
|-----------------------------||-----------------------------||-----------------------------||-----------------------------|(palm muted) 2x|-5-(8x)----------------------||--------7-(8x)-5-(8x)-3-(8x)-|
End Riff in G Chorus "...akong dinededma.." End in D For the Deadma version with Teddy's spoken part, just leave out the Guitar 1 Solo part. November 2, 2006, 10:41 a.m. My warmest thanks to... Juven Pelingon and the Rocksteddy band (Thanks for the inspiring tips, kuya Juven!) Mayor Jejomar Binay and the City Government of Makati Miss Tarra Quismundo and the Philippine Daily Inquirer Mama, Family and Friends Bandmates Jo Margarette Remollo and Abraham Jezreel Pincaro of Heartburn Bandmates Richard Cruz and Bernard Mendoza of Lunchbox Ateneo De Manila University (Block A4 Rocks!) Herson Colico Beltran (Our Music lives on, dear brother and friend!) For Camille... CopyrightŪ 2006 by Don Michael Acelar De Leon. All Rights Reserved.
Tap to rate this tab
 
# A B C D E F G H I J K L M N O P Q R S T U V W X Y Z