Stairway To Heaven tab with lyrics by Rodrigo Y Gabriela - Easy chords and tabs for guitar

Rodrigo Y Gabriela – Stairway To Heaven tab

This is Rodrigo's part from after the intro. What's up already is pretty accurate.

--------------------------------------7-8------10-12-------14-15---------------5-7-8-5---8p7p5-7-8------------10---------13-10-------17----------5---------------------4/7--9--------9-----------------------------7-----------------------------------------------------------------7---------------------------------------------------------------5h8----------------------------------------------------------------
-19-------17-------15-------14-------12--------------------------------17-------15-------13-------12-------10--------------------------------16-------14-------12-------11-------9-7-5--7-4--5-2--4-0--2----------------------------------------------------------------------------------------------------------------------------------------------------------------------------------------------------------
-------------------------------------------------------------------5-8--7h8p7-5------------------------------------2-5/7--------------5----5/7-5/7--5-4------------0-2-5-----------------------7--------------7-5-2-------------------------------------------------------5-2-------------------------------------------------------
-------------------0-0-0-0- -0-0-0-0----------------1-------1---1-0-1-1- -1-1-1-1--------------0-------0-----2-2-2-2- -0-0-0-0------------2-------0-------2-2-2-2- x2 -2-2-2-2-0-0-0-0--3-------2-------0-0-0-0-0- -3-3-3-3-5-5-5-5---------------------------- -----------------
-------------5-7-8-7-10-8-7-8-10-8--12-12--------------------12-14-15-14------------5------------------------------10-10-----------13----------------------5--------------------------------------9---12-14-----------------------7----------------------------------------------------------------------7--------------------------------------------------------------------5h8---------------------------------------------------------------------
---------9-10-12-10--------7-8-10-8-7-------10-----------------8-------------9-11----------------7-9--------------------------------------------------------------------------------------------------------------------------------
-----------------8\7------------------------------------------------------10-8-------8-10-----8/10-10---8-10-8h10p8-7-7---------------------------------9-7-9------------------9-----------------7-9--11-9-11-9h11p9/5-7-9----------------------------------------------------------------------------------------------------------------------------------------------------------------------------------------------------------------------------
--------------------------7-8-7h8p7--------------------------9--------------------------7\5--------------------------7--------------------------5-3-2-
arpegios again. ( repeat twice 1st time only )-0-2-3---0-2-3---0-2-3-3-2----------------------------------3-3-3---3-3-3---3-3-3-3-3-------5-----5-----7-----7-----5--2-2-2---2-2-2---2-2-2-2-2-----5---5-----5-----5-----5------0-0-0---0-0-0---0-0-0-0-0---5-------5-----5-----5-----5--- x2----------------------------------------------------------------------------------------------------------------------
------------------------------------------------------------------------------5-----5-----7-----7-----5------3-----3------------12-------12----------5---5-----5-----5-----5--------4---4-----4-------12----12-------12-----5-------5-----5-----5-----5----5-------5-----5--12----------12-------12---------------------------------------------------------------------------------------------------------------------------------------------------
solo-----------------------------------------8-8--10-8---------8---------10-8------------------------8/10-----------10-8-10----/9-9--------9-7------7-------------------------------------------------------10-7---10-7--------------------------------------------------------------10-8-----------------------------------------------------------------------------------------
-10-8------------------------8-10-8h10p8-------------8\7----------------------10-8---8-10-------8-10-------------10-8---8-10-----10-8---8-10/12------------9--------7-9-----------------------9---------------9---------------------------------------------------------------------------------------------------------------------------------------------------------------------------------------------------------------------------------
---------------------------------------------------------10-8-10-8h10p8-6-8-6h8p6-5-6-5h6p5-3-5-3h5p3-1-3-1h3p1---------------------------------------------------------------------------------------------------------------------------------------------------------------------------------------------------------------------------------
-------------------------3----------------------------------------------------3-5---5-4-3--------------------------4-5-4h5p4-2-0-2-4-5-------------5-2----------------------------------------------------------5-2----------------------------------------------------------5-3-2----------------------------------------------------------5-3-0-3/5-
--------------------------------------------------------------------0-----0-----0--------9---7-7--5-5--2------4---4-----4-----4------10--9-9--7-7--3--3/5-------5-----5-----5/7-----------------------------------------------------------------------------------------
haven't quite got the wee fast bit yet, but i'll get it up as soon as i can.
-12-12-12-12-12-12-12-13-13-13-13-13-13-13-15-15-15-15-15-15-16-16-16-16-16---------------------------------------------------------------------------------------------------------------------------------------------------------------------------------------------------------------------------------------------------------------------------------------------------------------------------------------------------------------------------------------------
-17--17-----------------------------------------
-5--5--x-x-x-x-3--3--x-x-x-x-1--1-1--1-1--1-1-1-1-1-1-3-3--5--5--x-x-x-x-3--3--x-x-x-x-1--1-1--1-1--1-1-1-1-1-1-3-3--5--5--x-x-x-x-4--4--x-x-x-x-2--2-2--2-2--2-2-2-2-2-2-4-4--7--7--x-x-x-x-5--5--x-x-x-x-3--3-3--3-3--3-3-3-3-3-3-5-5- x4-7--7--x-x-x-x-5--5--x-x-x-x-3--3-3--3-3--3-3-3-3-3-3-5-5--5--5--x-x-x-x-3--3--x-x-x-x-1--1-1--1-1--1-1-1-1-1-1-3-3-
-5-5-5-5--5-5-5-5--7-7-7-7--7-7-7-7--5-5-5-5--5-5-5-5--5-5-5-5--5-5-5-5--5-5-5-5--5-5-5-5--5-5-5-5--5-5-5-5--5-5-5-5--5-5-5-5--5-5-5-5--5-5-5-5--5-5-5-5--5-5-5-5--5-5-5-5--5-5-5-5--5-5-5-5--5-5-5-5--5-5-5-5--5-5-5-5-------------------------------------------------------------------------------------------------------------------------------------------------------------------------------------------------------------------------
-5-5-5-5--5-5-5-5--7-7-7-7--7-7-7-7-10-10-10-10--8-8-8-8--7-7-7-7-----------5-5-5-5--5-5-5-5--5-5-5-5--5-5-5-5--8--8--8--8--8-8-8-8--6-6-6-6--5-5-5-5--5-5-5-5--5-5-5-5--5-5-5-5--5-5-5-5--9--9--9--9--9-9-9-9--7-7-7-7--5-5-5-5--------------------------------------------------------------------7-7-7-7-------------------------------------------------------------------------------------------------------------------------------------------------------
-5-5-5-5--5-5-5-5--7-7-7-7--7-7-7-7--12-12-12-12-12-12-12-12-12-12-12-12--5-5-5-5--5-5-5-5--5-5-5-5--5-5-5-5--10-10-10-10-10-10-10-10-10-10-10-10--5-5-5-5--5-5-5-5--5-5-5-5--5-5-5-5--10-10-10-10-10-10-10-10-10-10-10-10----------------------------------------------------------------------------------------------------------------------------------------------------------------------------------------------------------------------------
-12-----8-----7-----5--10-----8-----8-----5--10-----9-----9-----5-------------------------------------------------------------------
-8-10---12-10-8---15-12------------------------------------------------------------10--------12----15-13-12---------10-----8----------------------------------10--------12-------------14-12\9----9\7---7\5----------------------------------------------------------------------------7-5----------------------------------------------------------------------------7-6-5\3----------------------------------------------------------------------------5-3-0----
--------4-----4-----4-----4-----4-----4-----4-----4----------5\----------5-----5-----5-----5-----5-----5-----5-----5--------5\-5----------5-----5-----5-----5-----5-----5-----5-----5------5\---7---------------------------------------------------------7\-----0-------------------------------------------------------7\-------------------------------------------------------------5\
The End.
Please rate this tab:
x1.0