Angie tab ver. 2 with lyrics by Rolling Stones - Easy chords and tabs for guitar

Rolling Stones – Angie tab ver. 2

intro:

Harmonics  Am                      E

|--------|--0---0---3^0----------|--------0-----------------------|

|--------|--1---1---1------------|------0---0--------0------------|

|--------|--2---2---2------------|----1-------1---1--1------------|

|--------|--2---2---2------------|--------------2-2---------------|

|--12----|-----------------------|--------------------------------|

|--------|-----------------------|-0------------------------------|



  G                 F              F               C

|---------3---------1-1----------|-1---------1--------------------|

|-------3---3-------1-1----------|---1----------------------------|

|-----5-------5-----3-2----------|--------2----------0-0----------|

|-5-------------5---3-3----------|------3------------3-2----------|

|--------------------------------|-----------------3--------------|

|--------------------------------|--------------------------------|



  Em7           Am

|--------------------------------|--------------------------------|

|-------0-------0^1--------------|--------------------------------|

|---------0-----2----------------|--------------------------------|

|----0----------2----------------|--------------------------------|

|--2------------0----------------|--------------------------------|

|--------------------------------|--------------------------------|





ANGIE  Stones  

[lyrics from ftp.uwp.edu]



Am     E7

Angie, Angie

G?              F? F      F C G C

When will those clouds all disappear?

Am     E7

Angie, Angie

G?              F? F      F C G C

Where were the ladies from here?



	G

With no loving in our souls

       Dm               Am

and no money in our coats

C               F                 G

(( Oh you can't say we're satisfied ))



Am     E7

Angie, Angie

G?              F? F      F C G C

(( Oh you can't say we never tried ))



Uh Angie, you're beautiful...yes

(( but ain't it time we said goodbye ))

Angie, I still love you

Remember all those nights we cried



(( All the dreams we held so close

Seem to all go up in smoke

Oh let me whisper in your ear ))



Angie, Angie        { <<< whisper }

Where were the ladies from here?



{ piano solo }



Oh Angie don't you weep

All your kisses still taste sweet

I hate that sadness in your eyes



but Angie, Angie

Ain't it time we said goodbye...ya



{ strings }



(( With no loving in our souls

and no money in our coats

Oh you can't say we're satisfied ))



Dm                              Am

but Angie, I still love you baby

Dm                              Am

Every where I look I see your eyes

Dm                              Am

There ain't a woman that comes close to you

  C             F       G

Come on baby dry your eyes



Angie, Angie

Ain't it good to be alive

Angie, Angie

They can't say we never tried



{ END }



  Am   G  G? F  F? C  Dm

|------3-----1--1------1---------|

|--1------3--1--1--1---3---------|

|--2---------2--3------2---------|

|--2---------3--3--2-------------|

|------2--2--------3-------------|

|------3--3--------3-------------|
Please rate this tab:
x1.0