Rolling Stones - Time Is On My Side tab

Time is on my side
The Rolling Stones                                                  


E||--16b----16b------16b---|----13----------13----------|----------------------|B||------------------------|--------13------------------|----------------------|G||------------------------|------------15b---------15b-|------13r-------------|D||------------------------|----------------------------|--------------15/-----|A||------------------------|----------------------------|----------------------|E||------------------------|----------------------------|----------------------|
------13------13------13------13--|------13------13------------------|--16b-----16b-----16b-----16b-----|--16b-----16b---------13----------|----------------------------------|------------------15b-----15b-15r-|----------------------------------|----------------------------------|----------------------------------|----------------------------------|----------------------------------|----------------------------------|
----------------------------|--1------1-------1----|----1--1--1------------|----------------------------|--1------1----3--1----|----1--1--1--3------3--|--13------15b---15b-15r-----|--2------2----3--2----|----2--2--2--3------3--|------15--------------------|--3------3----3--3----|----3--3--3--3------3--|----------------------------|--3--------------3----|-------------1------1--|----------------------------|--1-------------------|-----------------------|
-------------------------------|--1------1-------1----|----1--1--1------------|-------------------------------|--1------1----3--1----|----1--1--1--3------3--|--7--7-------------------------|--2------2----3--2----|----2--2--2--3------3--|--8--8-------10----------------|--3------3----3--3----|----3--3--3--3------3--|--8--8--8--9-10-10--10------8--|--3--------------3----|-------------1------1--|--6--6--6--7-8--8---8---10-----|--1-------------------|-----------------------|
-------------------------------|-------------------------|-------------------------------|---------6--6------------|--7--7-------------------------|-------7----7---------5--|--8--8-------10----------------|-----7-------------5-----|--8--8--8--9-10-10--10------8--|--5----------------3-----|--6--6--6--7-8--8---8---10-----|-------------------------|
--------------------------|----------------------1----------|-----5--------6--------6--|----------------0----------------|--------5-----7-----7-----|--7-----------0------------0--9--|--5--------5--7--7--------|-----7------0-----------------10-|--------------5-----------|----------2-------------------10-|--------------------------|--------3---------------------8--|
-----------------------------|--------------------------|-----------------------------|--------------5--5--5--5--|---------9---9--9--9---7--7--|-----7--7--7--5--5--5--5--|---------10--10-10-10--8--8--|-----8--8--8--5--5--5--5--|---------10--10-10-10--8--8--|-----8--8--8--3--3--3--3--|---------8---8--8--8---6--6--|-----6--6--6--------------|
-----------------------------|---------------------------|---5-5--3--3--3--3--3-3-3--5-|-----5--5--5--5--5--3--3-3-|---5-5--3--3--3--3--3-3-3--5-|-----5--5--5--5--5--3--3-3-|---5-5--3--3--3--3--3-3-3--5-|-----5--5--5--5--5--3--3-3-|---3-3--1--1--1--1--1-1-1--3-|-----3--3--3--3--3--1--1-1-|-----------------------------|---------------------------|
---------------------------|-----------------------------|-----3--3--3--5--5-5-5--5--|--5-5--5--5-5-5--5--5--5-5-5-|-----3--3--3--5--5-5-5--5--|--5-5--5--5-5-5--5--5--5-5-5-|-----3--3--3--5--5-5-5--5--|--5-5--5--5-5-5--5--5--5-5-5-|-----1--1--1--3--3-3-3--3--|--3-3--3--3-3-3--3--3--3-3-3-|---------------------------|-----------------------------|
--1------1-------1----|----1--1--1------------|-------------------------------|--1------1----3--1----|----1--1--1--3------3--|-------------------------------|--2------2----3--2----|----2--2--2--3------3--|--7--7-------------------------|--3------3----3--3----|----3--3--3--3------3--|--8--8-------10----------------|--3--------------3----|-------------1------1--|--8--8--8--9-10-10--10------8--|--1-------------------|-----------------------|--6--6--6--7-8--8---8---10-----|
--1------1-------1----|-----1--1--1------------|-------------------------------|--1------1----3--1----|-----1--1--1--3------3--|-------------------------------|--2------2----3--2----|-----2--2--2--3------3--|--7--7-------------------------|--3------3----3--3----|-----3--3--3--3------3--|--8--8-------10----------------|--3--------------3----|--------------1------1--|--8--8--8--9-10-10--10------8--|--1-------------------|------------------------|--6--6--6--7-8--8---8---10-----|
-------------------------|--------------------------|---------6--6------------|-----5--------6--------6--|-------7----7---------5--|--------5-----7-----7-----|-----7-------------5-----|--5--------5--7--7--------|--5----------------3-----|--------------5-----------|-------------------------|--------------------------|
----------------------1----------|-----------------------------|----------------0----------------|-----------------------------|--7-----------0------------0--9--|---------9---9--9--9---7--7--|-----7------0-----------------10-|---------10--10-10-10--8--8--|----------2-------------------10-|---------10--10-10-10--8--8--|--------3---------------------8--|---------8---8--8--8---6--6--|
--------------------------|-----------------------------|--------------5--5--5--5--|---5-5--3--3--3--3--3-3-3--5-|-----7--7--7--5--5--5--5--|---5-5--3--3--3--3--3-3-3--5-|-----8--8--8--5--5--5--5--|---5-5--3--3--3--3--3-3-3--5-|-----8--8--8--3--3--3--3--|---3-3--1--1--1--1--1-1-1--3-|-----6--6--6--------------|-----------------------------|
---------------------------|---------------------------------|-----5--5--5--5--5--3--3-3-|---3--3--3--3--------------------|-----5--5--5--5--5--3--3-3-|---3--3--3--3--9---9--9--9---9---|-----5--5--5--5--5--3--3-3-|---3--3--3--3--10--10-10-10--10--|-----3--3--3--3--3--1--1-1-|---1--1--1--1--10--10-10-10--10--|---------------------------|---------------8---8--8--8---8---|
------------------------------------|-----16b-16b-16b-----13--------|---10--10--10--10-10-10--10--10--10-|------------------------13-----|---9---9---9---9--9--9---9---9---9--|---------------------------15b-|---8---8---8---8--8--8---8---8---8--|-------------------------------|---10--10--10--10-10-10--10--10--10-|-------------------------------|---8---8---8---8--8--8---8---8---8--|-------------------------------|
--13-----------------------------|-----------------------------------------|---------------------------------|----------------13-----------------------|------15b-15b-15b-----13----13---|----------15-15b-----15b-15b13-13--13----|-------------------------15------|-------13-----------------------------15-|---------------------------------|----15-----------------------------------|---------------------------------|-----------------------------------------|
------13-------13----------------|-----------------------------|---------16-13----16~-----13-11b-|-----------------------------|---------------------------------|----------13-15-13-15~-------|---------------------------------|-------15--------------------|---------------------------------|-----------------------------|---------------------------------|-----------------------------|
-----------------------------13--|-------13-------------------------------|--------------------------13-----|----13----16~---13-----13---------------|-----15r13----13~---------14-----|-------------------15b----15r-----13----|-----------15-------15-----------|-------------------------------------15-|---------------------------------|----------------------------------------|---------------------------------|----------------------------------------|
------------------------------10--------|---------------------------------|----------------------------------------|---------------------------------|---13b---13------13------12b-----12-10--|------10-------------10b-----10--|------15------15----15------------------|---12----12~-----12------12------|----------------------------------------|---------------------------------|----------------------------------------|---------------------------------|
------10-----------------------------------|-----------------------------|--------------10----10---------------------|-----------------11----------|---12b-----12b---12b---12b12-10----10------|-----------10----12--10h-8h9-|--------------------------------12-----12--|-------12--------------------|-------------------------------------------|-----------------------------|-------------------------------------------|-----------------------------|
--------------------------1--|------1-------1------|--1--1--1---------------|------10--8---------8-----1--|------1----3--1------|--1--1--1--3------3-----|------10--8h9-------8h9---2--|------2----3--2------|--2--2--2--3------3-----|--10------------10~-------3--|------3----3--3------|--3--3--3--3------3--3--|----------------10~-------3--|--------------3------|-----------1------1--1--|--------------------------1--|---------------------|------------------------|
------------------------------5--|------1-------1------|------------------------------6--|------1----3--1------|-----9-------------9----------7--|------2----3--2------|-----10--10-10-10--10---------7--|------3----3--3------|--9--10--10-10-10--10------8--5--|--------------3------|--7--8---8--8--8---8---10--------|---------------------|
--1--1--1---------------|-------------------------------|--1--1--1--3------3-----|-------------------------------|--2--2--2--3------3-----|--7--7-------------------------|--3--3--3--3------3--3--|--8--8-------10----------------|-----------1------1--1--|--8--8--8--9-10-10--10------8--|------------------------|--6--6--6--7-8--8---8---10-----|
-------------------------|--------------------------|---------6--6------------|-----5--------6--------6--|-------7----7---------5--|--------5-----7-----7-----|-----7-------------5-----|--5--------5--7--7--------|--5----------------3-----|--------------5-----------|-------------------------|--------------------------|
----------------------1----------|--------------------------|----------------0----------------|-------5--5-5-5--3--3--3--|--7-----------0------------0--9--|-------5--5-5-5--3--3--3--|-----7------0-----------------10-|-------5--5-5-5--3--3--3--|----------2-------------------10-|-------3--3-3-3--1--1--1--|--------3---------------------8--|--------------------------|
--------------------------|--------------------------|----3--3--5--5--5--5--5-5-|----3--3--3--3--3-3-3--5--|----3--3--5--5--5--5--5-5-|----3--3--3--3--3-3-3--5--|----3--3--5--5--5--5--5-5-|----3--3--3--3--3-3-3--5--|----1--1--3--3--3--3--3-3-|----1--1--1--1--1-1-1--3--|--------------------------|--------------------------|
--------------------------|-----------------------------|-------5--5-5-5--3--3--3--|----3--3--5--5-5-5--5--5-5-5-|-------5--5-5-5--3--3--3--|----3--3--5--5-5-5--5--5-5-5-|-------5--5-5-5--3--3--3--|----3--3--5--5-5-5--5--5-5-5-|-------3--3-3-3--1--1--1--|----1--1--3--3-3-3--3--3-3-3-|--------------------------|-----------------------------|
---------------------------|-------------------------------|----5--5--5--5--5--5--1--1-|----1-1--1--1-1-1--1--1-1-1--1-|----5--5--5--5--5--5--2--2-|----2-2--2--2-2-2--2--2-2-2--2-|----5--5--5--5--5--5--3--3-|----3-3--3--3-3-3--3--3-3-3--3-|----3--3--3--3--3--3--3--3-|----3-3--3--3-3-3--3--3-3-3--3-|----------------------1--1-|----1-1--1--1-1-1--1--1-1-1--1-|
----------------------------|----------------------------|----1--1--3--3-3-3--3--3--3-|----5--5-5-5--------0--1--1-|----2--2--3--3-3-3--3--3--3-|----5--5-5-5--5--2-----2--2-|----3--3--3--3-3-3--3--3--3-|----5--5-5-5--5--0--2--3--3-|----3--3--1--1-1-1--1--1--1-|----3--3-3-3--3--------3--3-|----1--1--------------------|-----------------------1--1-|
-------------------------------|----------------------------|----1-1--1--1-1-1--1--1-1-1--1-|----1--1--3--3-3-3--3--3--3-|----2-2--2--2-2-2--2--2-2-2--2-|----2--2--3--3-3-3--3--3--3-|----3-3--3--3-3-3--3--3-3-3--3-|----3--3--3--3-3-3--3--3--3-|----3-3--3--3-3-3--3--3-3-3--3-|----3--3--1--1-1-1--1--1--1-|----1-1--1--1-1-1--1--1-1-1--1-|----1--1--------------------|
----------------------------|-------------------------------|----5--5-5-5--------0--1--1-|----1-1--1--1-1-1--1--1-1-1--1-|----5--5-5-5--5--2-----2--2-|----2-2--2--2-2-2--2--2-2-2--2-|----5--5-5-5--5--0--2--3--3-|----3-3--3--3-3-3--3--3-3-3--3-|----3--3-3-3--3--------3--3-|----3-3--3--3-3-3--3--3-3-3--3-|-----------------------1--1-|----1-1--1--1-1-1--1--1-1-1--1-|
----------------------------|----------------------1---|------------------|----1--1--3--3-3-3--3--3--3-|----5--5--5--5--5--5--1---|------------------|----2--2--3--3-3-3--3--3--3-|----5--5--5--5--5--5--2---|------------------|----3--3--3--3-3-3--3--3--3-|----5--5--5--5--5--5--3---|------------------|----3--3--1--1-1-1--1--1--1-|----3--3--3--3--3--3--3---|------------------|----1--1--------------------|----------------------1---|------------------|
Tap to rate this tab
 
# A B C D E F G H I J K L M N O P Q R S T U V W X Y Z