Romance - Romance Damour tab

Romance De Amor - OST Autumn In My Heart                              



   
E||--7--------7--------7--------|--7--------5--------3--------|B||-----0--------0--------0-----|-----0--------0--------0-----|G||--------0--------0--------0--|--------0--------0--------0--|D||-----------------------------|-----------------------------|A||-----------------------------|-----------------------------|E||--0--------------------------|--0--------------------------|
--3--------2--------0--------|--0--------3--------7--------|-----0--------0--------0-----|-----0--------0--------0-----|--------0--------0--------0--|--------0--------0--------0--|-----------------------------|-----------------------------|-----------------------------|-----------------------------|--0--------------------------|--0--------------------------|
--12--------12--------12--------|--12--------10--------8--------|------0---------0---------0-----|------0---------0--------0-----|---------0---------0---------0--|---------0---------0--------0--|--------------------------------|-------------------------------|--------------------------------|-------------------------------|---0----------------------------|---0---------------------------|
--8--------7--------5--------|--5--------7--------8--------|-----5--------5--------5-----|-----5--------5--------5-----|--------5--------5--------5--|--------5--------5--------5--|-----------------------------|-----------------------------|--0--------------------------|--0--------------------------|-----------------------------|-----------------------------|
--7--------8--------7--------|--11--------8--------7--------|-----7--------7--------7-----|------7--------7--------7-----|--------8--------8--------8--|---------8--------8--------8--|-----------------------------|------------------------------|-----------------------------|------------------------------|--7--------------------------|---7--------------------------|
--7--------5--------3--------|--3--------2--------0--------|-----0--------0--------0-----|-----0--------0--------0-----|--------0--------0--------0--|--------0--------0--------0--|-----------------------------|-----------------------------|-----------------------------|-----------------------------|--0--------------------------|--0--------------------------|
--2--------2--------2--------|--2--------3--------2--------|-----0--------0--------0-----|-----0--------0--------0-----|--------2--------2--------2--|--------2--------2--------2--|-----------------------------|-----------------------------|--2--------------------------|--2--------------------------|-----------------------------|-----------------------------|
--0--------0--------0--------|--0-------------||--4--------4--------4--------|-----0--------0--------0-----|----------------||-----0--------0--------0-----|--------0--------0--------0--|---------------*||--------1--------1--------1--|--2--------------------------|---------------*||-----------------------------|-----------2-----------------|----------------||-----------------------------|--------------------3--------|--0-------------||--0--------------------------|
--4--------2--------0--------|-----------------------------|-----0--------0--------0-----|--5--------4--------4--------|--------1--------1--------1--|-----2--------2--------2-----|-----------------------------|--------4--------4--------4--|-----------------------------|--2--------------------------|--0--------------------------|-----------------------------|
-----------------------------|--9--------9--------9--------|--4--------3--------4--------|-----7--------7--------7-----|-----2--------2--------2-----|--------8--------8--------8--|--------4--------4--------4--|-----------------------------|--2--------------------------|-----------------------------|-----------------------------|--7--------------------------|
--9--------11--------9--------|--9--------7--------7--------|-----7---------7--------7-----|-----9--------9--------9-----|--------8---------8--------8--|--------9--------9--------9--|------------------------------|-----------------------------|------------------------------|-----------------------------|--7---------------------------|--0--------------------------|
--7--------9--------11--------|--12--------12--------12--------|-----9--------9---------9-----|------9---------9---------9-----|--------9--------9---------9--|---------9---------9---------9--|------------------------------|--------------------------------|------------------------------|--------------------------------|--0---------------------------|---0----------------------------|
--12--------11--------10--------|--9--------9--------9--------|------9---------9---------9-----|-----5--------5--------5-----|---------9---------9---------9--|--------6--------6--------6--|--------------------------------|-----------------------------|--------------------------------|--0--------------------------|---0----------------------------|-----------------------------|
--9--------7--------5--------|--4--------4--------4--------|-----5--------5--------5-----|-----4--------4--------4-----|--------6--------6--------6--|--------2--------2--------2--|-----------------------------|-----------------------------|-----------------------------|--2--------------------------|--0--------------------------|-----------------------------|
--4--------5--------2--------|--0--------0--------0--------|--0------------||-----4--------4--------4-----|-----0--------0--------0-----|---------------||--------2--------2--------2--|--------1--------1--------1--|---------------||-----------------------------|--2--------------------------|---------------||--2--------------------------|-----------2-----------------|---------------||-----------------------------|--------------------4--------|--0------------||
Tutorial Video: http://www.youtube.com/watch?v=Zg05lIDEnC8
Tap to rate this tab
 
# A B C D E F G H I J K L M N O P Q R S T U V W X Y Z