Rose Funeral - Gods Hideous Creation tab

                               rose funeral
                           god's hideous creation
                             crucify.kill.rot
                                    \m/

all tremelo.---------------------------------|---------------------------------|---------------------------------|---------------------------------|------4-----3-----6-----4-3-4-3--|--0-1---0-1---0-1---0-1----------|
----------------------0----0--
-----------------------------------------------------|-----------------------------------------------------|-----------------------------------------------------|-----------------------------------------------------|last time--0--0-0-0-0-00--000000-000000--0-0-0-0--0-0-0--|-0~-|--0--0-0-0-0-00--000000-000000--0-0-0-0--1-1-1--|-0~-|
----------------------------------------------------------|----------------------------------------------------------|----------------------------------------------------------|----------------------------------------------------------|--000000-000000-000000----7t---7t-8t-10t-8t-7t-8t---------|(t=tremelo)--000000-000000-000000--77---77---------------------------|
------------------------|------------------------|------------------------|------------------------|--000000-000000-000000--|--000000-000000-000000--|
tremelo-----------------------------------|-----------------------------------|-----------------------------------|-----------------------------------|------1-----2-----3-----2-----1-2--|--0-1---0-1---0-1---0-1---0-1------|
------------------------|------------------------|------------------------|------------------------|--000000-000000-000000--|--000000-000000-000000--|
--------------------------------------------------|--------------------------------------------------|--------------------------------------------------|--------------------------------------------------|--000000-000000-000000-0-0-0-0--0-0-0-0--0-0-0-0--|--000000-000000-000000-0-0-0-0--0-0-0-0--0-0-0-0--|
-----------------------|-----------------------|-----------------------|-----------------------|--0--0--0--0--0--0--0--|--0--0--0--0--0--0--0--|
tremelo-------------------------------------------|-------------------------------------------|-------------------------------------------|-------------------------------------------|----7-6---5-7-3-6---7-6---000-000-111-111--|--0-----7---------0-----7-000-000-111-111--|
(not sure bout the harmonic)----------|--------------------------------------|----------|--------------------------------------|----------|--------------------------------------|--------3*|-------3*-------3*--------3*----------|--00000-----00000----00000-----00000----5-7-8-7--|tremelo--00000-----00000----00000-----00000-------------|
-----------------------------|-----------------------------|-----------------------------|--------3*-------3*----------|--00000----00000----5-7-8-7--|tremelo--00000----00000-------------|(X3)
-----------------------------|-----------------------------|-----------------------------|--------3*-------3*----------|--0-0-0----0-0-0----5-7-8-7--|--0-0-0----0-0-0-------------|(X4)
-----------------------------------|-----------------------------------|-----------------------------------|-----------------------------------|------3-----2-----6-----3-----3-2--|--0-1---0-1---0-1---0-1---0-1------|
or-----------------------------------|-----------------------------------|-----------------------------------|------------------1----------------|------3-----2-----------3-----3-2--|--0-1---0-1---0-1---0-1---0-1------|
--------------|--------------|--------------|--------------|--00---00-00--|--00---00-00--|another by ear bitch
myspace:www.myspace.com/mikejamescarr email:kingy_kang@yahoo.com
Tap to rate this tab
 
# A B C D E F G H I J K L M N O P Q R S T U V W X Y Z