Roselyn - Notdeadspace tab

Guitar 1|--------------------------------------------------||--------------------------------------------------||--------------------------------------------------||----7-6-4-6-7---7-6-4-6-7---6-4---4-6---6-4---4-6-| x2|--------------------------------7-----------7-----||-000-0-0-0-0-000-0-0-0-0-444-4-4-4-4-444-4-4-4-4--| ... . . . . ... . . . . ... . . . . ... . . . .
Guitar 2|--------------------------------------------------||--------------------------------------------------||--------------------------------------------------||-0-----------0------------4----------4------------| x2|-0-----------0------------4----------4------------||-0-----------0------------4----------4------------|
Guitar 1|--------------------------------------------------||--------------------------------------------------||--------------------------------------------------||----7-6-4-6-7---7-6-4-6-7---6-4---4-6---6-4---4-6-| x2|--------------------------------7-----------7-----||-000-0-0-0-0-000-0-0-0-0-444-4-4-4-4-444-4-4-4-4--| ... . . . . ... . . . . ... . . . . ... . . . .
|--------------------------------------------------||--------------------------------------------------||--------------------------------------------------||-0000----000-000---2222224444----444-444-44-7---2-| x2|-0000----000-000---2222224444----444-444-44-7---2-||-0000----000-000---2222224444----444-444-44-7---2-|
.... ... ... .......... ... ... .. Guitar 1, 2|--------------------------------------------------||--------------------------------------------------||------------------------4-------------------------||-0----------------------4-------------------------||-0----------------------0-------------------------||-0----------------------0-------------------------|
|--------------------|--|-------------------|--||--------------------|--|-------------------|--||--------------------|--|---------------6---|--||-2h4-4-4-4h6-7-6-2h4|x2|-4h6-6-6-4h6-7---7-|x2||--------------------|--|-------------------|--||----0-0-0---0-0-0---|--|----4-4-4---4-4-4--|--| . . . . . . . . . . . .
|----------------------------------------------||----------------------------------------------||-----9-----9-----9-----9----6----6----6----6--||-6h7---6h7---6h7---6h7----4----4----4----4----| x2|-------------------------7----7----7----7-----||----0-0---0-0---0-0---0-0--4-4--4-4--4-4--4-4-|
. . . . . . . . . . . . . . . . Guitar 1|--------------|------------------------------------------||--------------|------------------------------------------||------7-----7-|------------------------------------------||-6h7-6-6h7-6--|-repeated throughout guitar 2 progression-||--------------|------------------------------------------||--------------|------------------------------------------|
Guitar 2|---------------------------------------------||---------------------------------------------||---------------------------------------------| x2|-0-0-0-00---0-0-0-02-2--4-4-4-44--4-4-4-47-2-||-0-0-0-00---0-0-0-02-2--4-4-4-44--4-4-4-47-2-||-0-0-0-00---0-0-0-02-2--4-4-4-44--4-4-4-47-2-| . . . .. . . . . . . . .. . . . .
Guitar 1e|--------------------------------------------------|B|--------------------------------------------------|G|--------------------------------------------------|D|----7-6-4-6-7---7-6-4-6-7---7-6-4-6-7---7-6-4-6-7-|A|--------------------------------------------------|E|-000-0-0-0-0-000-0-0-0-0-000-0-0-0-0-000-0-0-0-0--|PM ... . . . . ... . . . . ... . . . . ... . . . .
Guitar 2|---||---||---||-0-||-0-||-0-|
Guitar 1, 2|------------------------------------------------||------------------------------------------------||------------------------------------------------| Guitar 1 x4|-0000---000-000---0000000000---000-000---000000-| Guitar 2 x2|-0000---000-000---0000000000---000-000---000000-| |-0000---000-000---0000000000---000-000---000000-| .... ... ... .......... ... ... ......
Guitar 2|--------------------------------------------------||--------------------------------------------------||--------------------------------------------------||----7-6-4-6-7---7-6-4-6-7---7-6-4-6-7---7-6-4-6-7-||--------------------------------------------------||-000-0-0-0-0-000-0-0-0-0-000-0-0-0-0-000-0-0-0-0--| ... . . . . ... . . . . ... . . . . ... . . . .
Guitar 2|--------------------------------------------------||--------------------------------------------------||--------------------------------------------------||----7-6-4-6-7---7-6-4-6-7---6-4---4-6---6-4---4-6-| x2|--------------------------------7-----------7-----||-000-0-0-0-0-000-0-0-0-0-444-4-4-4-4-444-4-4-4-4--| ... . . . . ... . . . . ... . . . . ... . . . .
|------------------------------------------------------||---------------------------------------6------------6-||-------------9------------9---------2h4----------2h4--||----7-6-4-6h7----7-6-4-6h7----6-4----------6-4--------| x2|----------------------------------7------------7------||-000-0-0------000-0-0------444-4-4------444-4-4-------| ... . . . . ... . . . . ... . . . . ... . . . .
Guitar 1, 2|-------------------------------------------------------------||-------------------------------------------------------------||-------------------------------------------------------------||-------------------------------------------------------------||-------------------------------------------------------------||-0-0-000-0-0-000-0-0-000-2-2-222-4-4-444-4-4-444-7-7-7-6-6-6-| ... ... ... ... ... ...
|-------------------------------------------------------------||-------------------------------------------------------------||-------------------------------------------------------------||-------------------------------------------------------------||-------------------------------------------------------------||-0-0-000-0-0-000-0-0-000-2-2-222-4-4-444-4-4-444-7-7-7-2-2-2-| ... ... ... ... ... ...
|-------------------------------------------------------------||-------------------------------------------------------------||-------------------------------------------------------------||-0-0-000-0-0-000-0-0-000-2-2-222-4-4-444-4-4-444-7-7-7-6-6-6-||-0-0-000-0-0-000-0-0-000-2-2-222-4-4-444-4-4-444-7-7-7-6-6-6-||-0-0-000-0-0-000-0-0-000-2-2-222-4-4-444-4-4-444-7-7-7-6-6-6-|
... ... ... ... ... ...|-------------------------------------------------------------||-------------------------------------------------------------||-------------------------------------------------------------||-0-0-000-0-0-000-0-0-000-2-2-222-4-4-444-4-4-444-7-7-7-2-2-2-||-0-0-000-0-0-000-0-0-000-2-2-222-4-4-444-4-4-444-7-7-7-2-2-2-||-0-0-000-0-0-000-0-0-000-2-2-222-4-4-444-4-4-444-7-7-7-2-2-2-| ... ... ... ... ... ...
|-----------------------------------------------------||-----------------------------------------------------||-----------------------------------------------------||-0----------------------0------------0-0000000666666-||-0----------------------0------------0-0000000222222-||-0----------------------0------------0-0000000222222-| .......
Pretty Chorus|----------------------------| ||----------------------------| ||---------6-6-6--------------| ||-6-666-6-4-4-4-9-9-9-6-66-6-|x2 ||-4-444-4-0-0-0-7-7-7-2-22-2-| ||-4-444-4-0-0-0-7-7-7-2-22-2-| |
| x2|------------------------------------------------------------| ||------------------------------------------------------------| ||-----------------6-66-6-------------------------------------| | |-6-6-66-6-9-99-9-4-44-4-6-66-6-6-6-6-6-66-6-666666666999999-| ||-4-4-44-4-7-77-7-0-00-0-2-22-2-4-4-4-2-22-2-444444444777777-| ||-4-4-44-4-7-77-7-0-00-0-2-22-2-4-4-4-2-22-2-444444444777777-| |
|---------------------------------------------------||---------------------------------------------------||---------------------------------------------------||-0----------------------2--------------------------||-0----------------------2--------------------------||-0----------------------2--------------------------|
|------------------------------------------------------------------||------------------------------------------------------------------||------------------------------------------------------------------||-4444444444444444999999999999999922222222222222220000000000000000-| x4|-4444444444444444777777777777777722222222222222220000000000000000-||-4444444444444444777777777777777722222222222222220000000000000000-|
|---||---||---||-0-||-0-||-0-|
Tap to rate this tab
 
# A B C D E F G H I J K L M N O P Q R S T U V W X Y Z