Rotting Christ – Visions Of A Blind Order tab

                            VISIONS OF A BLIND ORDER
                          As recorded by Rotting Christ
                     (From the 2004 Album SANCTUS DIAVOLOS)

Words and Music by Sakis
Transcribed by Da(e)mon

Intro Q=140 G#sus4 G#sus4/A 4/4 Gtr I||--------------------------------------------------|||o-------------------------------------------------|||--------------------------------------------------|||---6--6--6--6--6--6--6--6--7--7--7--7--7--7--7--7-|||o-------------------------------------------------|||--------------------------------------------------|
|
| Gtr II||--------------------------------------------------|||o-14-14-14-14-14-14-14-14-14-14-14-14-14-14-14-14-|||--13-13-13-13-13-13-13-13-13-13-13-13-13-13-13-13-|||--------------------------------------------------|||o-------------------------------------------------|||--------------------------------------------------|
|
| Gtrs III, IV||--------------------------------------------------|||o-14----------------------------------------------|||--------------------------------------------------|||--------------------------------------------------|||o-------------------------------------------------|||--------------------------------------------------|
F#sus2 G#sus4 F#sus4 Esus4 G#sus4|---------------------------------------------------|-------------------------------------------------||---------------------------------------------------|-------------------------------------------------||---------------------------------------------------|-------------------------------------------------||---4---4--4--4--6--6--6--6--6--6--6--6--6--6--6--6-|--4--4--4--4--------------------------6--6--6--6-||---------------------------------------------------|--------------7--7--7--7--7--7--7--7-------------||---------------------------------------------------|-------------------------------------------------|
|
|---------------------------------------------------|-------------------------------------------------||--14--14-14-14-14-14-14-14-14-14-14-14-14-14-14-14-|-12-12-12-12-------------------------14-14-14-14-||--13--13-13-13-13-13-13-13-13-13-13-13-13-13-13-13-|-11-11-11-11-14-14-14-14-14-14-14-14-13-13-13-13-||---------------------------------------------------|-------------14-14-14-14-14-14-14-14-------------||---------------------------------------------------|-------------------------------------------------||---------------------------------------------------|-------------------------------------------------|
|
|---------------------------------------------------|-------------------------------------------------||-(14)----------------------------------------------|-12----------------------------------14----------||---------------------------------------------------|-------------14----------------------------------||---------------------------------------------------|-------------------------------------------------||---------------------------------------------------|-------------------------------------------------||---------------------------------------------------|-------------------------------------------------|
F#sus4 4x|--------------------------------------------------||-||-------------------------------------------------o||-||--------------------------------------------------||-||--4--4--4--4--4--4--4--4--4--4--4--4--4--4--4--4--||-||-------------------------------------------------o||-||--------------------------------------------------||-|
|
| 4x|--------------------------------------------------||-||-12-12-12-12-12-12-12-12-12-12-12-12-12-12-12-12-o||-||-11-11-11-11-11-11-11-11-11-11-11-11-11-11-11-11--||-||--------------------------------------------------||-||-------------------------------------------------o||-||--------------------------------------------------||-|
|
| 4x|--------------------------------------------------||-||-12----------------------------------------------o||-||--------------------------------------------------||-||--------------------------------------------------||-||-------------------------------------------------o||-||--------------------------------------------------||-|
Verse N.C. F#5 < < <||----------|--------------|---------|-------------------||||o---------|--------------|---------|------------------o||||----------|--------------|---------|-------------------||||----------|--------------|---------|-9----9\-----------||||o---------|-11----11\----|---------|------------------o||||----------|--------------|---------|-------------------||
|
||----------|--------------|---------|-------------------||||o---------|--------------|---------|------------------o||||----------|--------------|---------|-------------------||||----------|--------------|---------|------4--4-4-4-----||||o---------|--------------|---------|------4--4-4-4----o||||----------|--------------|---------|------2--2-2-2-----||
|
||----------|--------------|---------|-------------------||||o---------|--------------|---------|------------------o||||----------|--------------|---------|-------------------||||----------|--------------|---------|-------------------||||o---------|--------------|---------|------------------o||||----------|--------------|---------|-------------------||
Chorus G#5 <|-----------------------------------|--------------------------------------||-----------------------------------|--------------------------------------||-----------------------------------|--------------------------------------||-----------------------------------|--------------------------------------||-----------------------------------|-11----------------11\----------------||-----------------------------------|--------------------------------------|
|
|-----------------------------------|--------------------------------------||-----------------------------------|--------------------------------------||-----------------------------------|--------------------------------------||-6----------------6----------------|--6-----------------6-----------------||-6----------------6----------------|--6-----------------6-----------------||-4-4-4--4--4-4-4--4--4-4--4--4-4-4-|--4--4-4--4--4-4-4--4--4-4---4--4-4-4-|
|
| Gtr IV|-----------------------------------|--------------------------------------||-9-----(9)-------(9)-----(9)-------|-(9)-----(9)----------------(9)-------||-----------------------------------|--------------------------------------||--------9--------11-------8--------|--9-----------------------------------||-----------------------------------|---------11----------------(11)-------||--------7---------9-------6--------|--7-------4-----------------(4)-------|
F#5 < <|-----------------------------------|-------------------------||-----------------------------------|-------------------------||-----------------------------------|-------------------------||-----------------------------------|-9-------------9\--------||-----------------------------------|-------------------------||-----------------------------------|-------------------------|
|
|-----------------------------------|-------------------------||-----------------------------------|-------------------------||-----------------------------------|-------------------------||--6----------------6---------------|-6-------------4--4-4-4--||--6----------------6---------------|-6-------------4--4-4-4--||--4--4-4--4--4-4-4-4-4-4--4--4-4-4-|-4-4-4-4-4-4-4-2--2-2-2--|
|
|-----------------------------------|-------------------------||-(9)-----(9)-------------(9)-------|-9-------------7---------||-----------------------------------|-------------------------||----------8------------------------|-------------------------||-11----------------------11--------|-9-----------------------||--4-------6---------------4--------|-2-----------------------|
G#5 <|-------------------------------|-------------------------------------||-------------------------------|-------------------------------------||-------------------------------|-------------------------------------||-------------------------------|-------------------------------------||-------------------------------|-11----------------11\---------------||-------------------------------|-------------------------------------|
|
|-------------------------------|-------------------------------------||-------------------------------|-------------------------------------||-------------------------------|-------------------------------------||--6--------------6-------------|--6-----------------6----------------||--6--------------6-------------|--6-----------------6----------------||--4--4-4-4-4-4-4-4-4-4-4-4-4-4-|--4--4-4--4--4-4-4--4--4-4--4--4-4-4-|
|
|-------------------------------|-------------------------------------||--9----------------------------|-(9)---------------------------------||-------------------------------|-------------------------------------||---------4-------6-----6-------|--6------(6)---------------(6)-------||-(9)---------------------------|-------------------------------------||-(2)-----2-------4-----4-------|--4------(4)---------------(4)-------|
F#5 < <|--------------------------------|---------------------------||--------------------------------|---------------------------||--------------------------------|---------------------------||--------------------------------|--9--------------9\--------||--------------------------------|---------------------------||--------------------------------|---------------------------|
|
|--------------------------------|---------------------------||--------------------------------|---------------------------||--------------------------------|---------------------------||--6---------------6-------------|--6--------------4--4-4-4--||--6---------------6-------------|--6--------------4--4-4-4--||--4--4-4--4-4-4-4-4-4-4-4-4-4-4-|--4--4-4-4-4-4-4-2--2-2-2--|
|
|--------------------------------|---------------------------||-(9)----------------------------|-(9)-------------7---------||--------------------------------|---------------------------||--9------11-------------8-------|--6------------------------||--------------------------------|---------------------------||--7-------9-------------6-------|--4------------------------|
Intro Riff Q=140 G#sus4 G#sus4/A 4/4 Gtr I||--------------------------------------------------|||o-------------------------------------------------|||--------------------------------------------------|||---6--6--6--6--6--6--6--6--7--7--7--7--7--7--7--7-|||o-------------------------------------------------|||--------------------------------------------------|
|
| Gtr II||--------------------------------------------------|||o-14-14-14-14-14-14-14-14-14-14-14-14-14-14-14-14-|||--13-13-13-13-13-13-13-13-13-13-13-13-13-13-13-13-|||--------------------------------------------------|||o-------------------------------------------------|||--------------------------------------------------|
|
| Gtrs III, IV||--------------------------------------------------|||o-14----------------------------------------------|||--------------------------------------------------|||--------------------------------------------------|||o-------------------------------------------------|||--------------------------------------------------|
F#sus2 G#sus4 F#sus4 Esus4 G#sus4|---------------------------------------------------|-------------------------------------------------||---------------------------------------------------|-------------------------------------------------||---------------------------------------------------|-------------------------------------------------||---4---4--4--4--6--6--6--6--6--6--6--6--6--6--6--6-|--4--4--4--4--------------------------6--6--6--6-||---------------------------------------------------|--------------7--7--7--7--7--7--7--7-------------||---------------------------------------------------|-------------------------------------------------|
|
|---------------------------------------------------|-------------------------------------------------||--14--14-14-14-14-14-14-14-14-14-14-14-14-14-14-14-|-12-12-12-12-------------------------14-14-14-14-||--13--13-13-13-13-13-13-13-13-13-13-13-13-13-13-13-|-11-11-11-11-14-14-14-14-14-14-14-14-13-13-13-13-||---------------------------------------------------|-------------14-14-14-14-14-14-14-14-------------||---------------------------------------------------|-------------------------------------------------||---------------------------------------------------|-------------------------------------------------|
|
|---------------------------------------------------|-------------------------------------------------||-(14)----------------------------------------------|-12----------------------------------14----------||---------------------------------------------------|-------------14----------------------------------||---------------------------------------------------|-------------------------------------------------||---------------------------------------------------|-------------------------------------------------||---------------------------------------------------|-------------------------------------------------|
F#sus4 4x|--------------------------------------------------||-||-------------------------------------------------o||-||--------------------------------------------------||-||--4--4--4--4--4--4--4--4--4--4--4--4--4--4--4--4--||-||-------------------------------------------------o||-||--------------------------------------------------||-|
|
| 4x|--------------------------------------------------||-||-12-12-12-12-12-12-12-12-12-12-12-12-12-12-12-12-o||-||-11-11-11-11-11-11-11-11-11-11-11-11-11-11-11-11--||-||--------------------------------------------------||-||-------------------------------------------------o||-||--------------------------------------------------||-|
|
| 4x|--------------------------------------------------||-||-12----------------------------------------------o||-||--------------------------------------------------||-||--------------------------------------------------||-||-------------------------------------------------o||-||--------------------------------------------------||-|
Verse N.C. F#5 < < <||----------|--------------|---------|-------------------||||o---------|--------------|---------|------------------o||||----------|--------------|---------|-------------------||||----------|--------------|---------|-9----9\-----------||||o---------|-11----11\----|---------|------------------o||||----------|--------------|---------|-------------------||
|
||----------|--------------|---------|-------------------||||o---------|--------------|---------|------------------o||||----------|--------------|---------|-------------------||||----------|--------------|---------|------4--4-4-4-----||||o---------|--------------|---------|------4--4-4-4----o||||----------|--------------|---------|------2--2-2-2-----||
|
||----------|--------------|---------|-------------------||||o---------|--------------|---------|------------------o||||----------|--------------|---------|-------------------||||----------|--------------|---------|-------------------||||o---------|--------------|---------|------------------o||||----------|--------------|---------|-------------------||
Chorus G#5 <|-----------------------------------|--------------------------------------||-----------------------------------|--------------------------------------||-----------------------------------|--------------------------------------||-----------------------------------|--------------------------------------||-----------------------------------|-11----------------11\----------------||-----------------------------------|--------------------------------------|
|
|-----------------------------------|--------------------------------------||-----------------------------------|--------------------------------------||-----------------------------------|--------------------------------------||-6----------------6----------------|--6-----------------6-----------------||-6----------------6----------------|--6-----------------6-----------------||-4-4-4--4--4-4-4--4--4-4--4--4-4-4-|--4--4-4--4--4-4-4--4--4-4---4--4-4-4-|
|
| Gtr IV|-----------------------------------|--------------------------------------||-9-----(9)-------(9)-----(9)-------|-(9)-----(9)----------------(9)-------||-----------------------------------|--------------------------------------||--------9--------11-------8--------|--9-----------------------------------||-----------------------------------|---------11----------------(11)-------||--------7---------9-------6--------|--7-------4-----------------(4)-------|
F#5 < <|-----------------------------------|-------------------------||-----------------------------------|-------------------------||-----------------------------------|-------------------------||-----------------------------------|-9-------------9\--------||-----------------------------------|-------------------------||-----------------------------------|-------------------------|
|
|-----------------------------------|-------------------------||-----------------------------------|-------------------------||-----------------------------------|-------------------------||--6----------------6---------------|-6-------------4--4-4-4--||--6----------------6---------------|-6-------------4--4-4-4--||--4--4-4--4--4-4-4-4-4-4--4--4-4-4-|-4-4-4-4-4-4-4-2--2-2-2--|
|
|-----------------------------------|-------------------------||-(9)-----(9)-------------(9)-------|-9-------------7---------||-----------------------------------|-------------------------||----------8------------------------|-------------------------||-11----------------------11--------|-9-----------------------||--4-------6---------------4--------|-2-----------------------|
G#5 <|-----------------------------|-------------------------------------||-----------------------------|-------------------------------------||-----------------------------|-------------------------------------||-----------------------------|-------------------------------------||-----------------------------|-11----------------11\---------------||-----------------------------|-------------------------------------|
|
|-----------------------------|-------------------------------------||-----------------------------|-------------------------------------||-----------------------------|-------------------------------------||-6-------------6-------------|--6-----------------6----------------||-6-------------6-------------|--6-----------------6----------------||-4-4-4-4-4-4-4-4-4-4-4-4-4-4-|--4--4-4--4--4-4-4--4--4-4--4--4-4-4-|
|
|-----------------------------|-------------------------------------||-9---------------------------|-(9)---------------------------------||-----------------------------|-------------------------------------||-------4-------6-----6-------|--6------(6)---------------(6)-------||-9---------------------------|-------------------------------------||-2-----2-------4-----4-------|--4------(4)---------------(4)-------|
F#5 < <|--------------------------------|---------------------------||--------------------------------|---------------------------||--------------------------------|---------------------------||--------------------------------|--9--------------9\--------||--------------------------------|---------------------------||--------------------------------|---------------------------|
|
|--------------------------------|---------------------------||--------------------------------|---------------------------||--------------------------------|---------------------------||--6---------------6-------------|--6--------------4--4-4-4--||--6---------------6-------------|--6--------------4--4-4-4--||--4--4-4--4-4-4-4-4-4-4-4-4-4-4-|--4--4-4-4-4-4-4-2--2-2-2--|
|
|--------------------------------|---------------------------||-(9)----------------------------|-(9)-------------7---------||--------------------------------|---------------------------||--9------11-------------8-------|--6------------------------||--------------------------------|---------------------------||--7-------9-------------6-------|--4------------------------|
G#5 <|-----------------------------|---------------------------------||-----------------------------|---------------------------------||-----------------------------|---------------------------------||-----------------------------|---------------------------------||-----------------------------|-11--------------11\-------------||-----------------------------|---------------------------------|
|
|-----------------------------|---------------------------------||-----------------------------|---------------------------------||-----------------------------|---------------------------------||-6-------------6-------------|--6---------------6--------------||-6-------------6-------------|--6---------------6--------------||-4-4-4-4-4-4-4-4-4-4-4-4-4-4-|--4--4-4-4-4-4-4--4--4-4-4-4-4-4-|
|
| Gtrs III, IV|-----------------------------|---------------------------------||-9---------------------------|-(9)-----------------------------||-----------------------------|---------------------------------||-----------------------------|---------------------------------||-----------------------------|---------------------------------||-4-------------6-------------|--7------------------------------|
F#5 < <|--------------------------------|---------------------------||--------------------------------|---------------------------||--------------------------------|---------------------------||--------------------------------|--9--------------9\--------||--------------------------------|---------------------------||--------------------------------|---------------------------|
|
|--------------------------------|---------------------------||--------------------------------|---------------------------||--------------------------------|---------------------------||--6---------------6-------------|--6--------------4--4-4-4--||--6---------------6-------------|--6--------------4--4-4-4--||--4--4-4-4-4-4-4--4-4-4-4-4-4-4-|--4--4-4-4-4-4-4-2--2-2-2--|
|
|--------------------------------|---------------------------||-(9)----------------------------|-(9)-------------7---------||--------------------------------|---------------------------||--------------------------------|---------------------------||--------------------------------|---------------------------||--9--------------11-------------|--7--------------6---------|
G#5 <|-----------------------------|---------------------------------||-----------------------------|---------------------------------||-----------------------------|---------------------------------||-----------------------------|---------------------------------||-----------------------------|-11--------------11\-------------||-----------------------------|---------------------------------|
|
|-----------------------------|---------------------------------||-----------------------------|---------------------------------||-----------------------------|---------------------------------||-6-------------6-------------|--6---------------6--------------||-6-------------6-------------|--6---------------6--------------||-4-4-4-4-4-4-4-4-4-4-4-4-4-4-|--4--4-4-4-4-4-4--4--4-4-4-4-4-4-|
|
|-----------------------------|---------------------------------||-9---------------------------|-(9)-----------------------------||-----------------------------|---------------------------------||-----------------------------|---------------------------------||-----------------------------|---------------------------------||-7---------------------------|-12------------------------------|
F#5 < <|--------------------------------|---------------------------||--------------------------------|---------------------------||--------------------------------|---------------------------||--------------------------------|--9--------------9\--------||--------------------------------|---------------------------||--------------------------------|---------------------------|
|
|--------------------------------|---------------------------||--------------------------------|---------------------------||--------------------------------|---------------------------||--6---------------6-------------|--6--------------4--4-4-4--||--6---------------6-------------|--6--------------4--4-4-4--||--4--4-4-4-4-4-4--4-4-4-4-4-4-4-|--4--4-4-4-4-4-4-2--2-2-2--|
|
|--------------------------------|---------------------------||-(9)----------------------------|-(9)-------------7---------||--------------------------------|---------------------------||--------------------------------|---------------------------||--------------------------------|---------------------------||--9--------------11-------------|--7--------------6---------|
Bridge G#5 <|-----------------------------|---------------------------------||-----------------------------|---------------------------------||-----------------------------|---------------------------------||-----------------------------|---------------------------------||-----------------------------|-11--------------11\-------------||-----------------------------|---------------------------------|
|
|-----------------------------|---------------------------------||-----------------------------|---------------------------------||-----------------------------|---------------------------------||-6-------------6-------------|--6---------------6--------------||-6-------------6-------------|--6---------------6--------------||-4-4-4-4-4-4-4-4-4-4-4-4-4-4-|--4--4-4-4-4-4-4--4--4-4-4-4-4-4-|
|
|-----------------------------|---------------------------------||-9---------------------------|-(9)-----------------------------||-----------------------------|---------------------------------||-6-------------8-------------|--9------------------------------||-----------------------------|---------------------------------||-4-------------6-------------|--7------------------------------|
F#5 < <|--------------------------------|---------------------------||--------------------------------|---------------------------||--------------------------------|---------------------------||--------------------------------|--9--------------9\--------||--------------------------------|---------------------------||--------------------------------|---------------------------|
|
|--------------------------------|---------------------------||--------------------------------|---------------------------||--------------------------------|---------------------------||--6---------------6-------------|--6--------------4--4-4-4--||--6---------------6-------------|--6--------------4--4-4-4--||--4--4-4-4-4-4-4--4-4-4-4-4-4-4-|--4--4-4-4-4-4-4-2--2-2-2--|
|
|--------------------------------|---------------------------||-(9)----------------------------|-(9)-------------7---------||--------------------------------|---------------------------||-11--------------13-------------|--9--------------8---------||--------------------------------|---------------------------||--9--------------11-------------|--7--------------6---------|
G#5 <|-----------------------------|----------------------------------||-----------------------------|----------------------------------||-----------------------------|----------------------------------||-----------------------------|----------------------------------||-----------------------------|-11--------------11\--------------||-----------------------------|----------------------------------|
|
|-----------------------------|----------------------------------||-----------------------------|----------------------------------||-----------------------------|----------------------------------||-6-------------6-------------|--6---------------6---------------||-6-------------6-------------|--6---------------6---------------||-4-4-4-4-4-4-4-4-4-4-4-4-4-4-|--4--4-4-4-4-4-4--4--4-4-4-4--4-4-|
|
|-----------------------------|----------------------------------||-9---------------------------|-(9)-------------------------11---||-----------------------------|----------------------------------||-9---------------------------|-14-------------------------------||-----------------------------|----------------------------------||-7---------------------------|-12-------------------------------|
F#5 < <|-------------------------------|--------------------------||-------------------------------|--------------------------||-------------------------------|--------------------------||-------------------------------|-9--------------9\--------||-------------------------------|--------------------------||-------------------------------|--------------------------|
|
|-------------------------------|--------------------------||-------------------------------|--------------------------||-------------------------------|--------------------------||--6--------------6-------------|-6--------------4--4-4-4--||--6--------------6-------------|-6--------------4--4-4-4--||--4-4-4-4-4-4-4--4-4-4-4-4-4-4-|-4-4-4-4-4-4-4--2--2-2-2--|
|
| Gtrs III, IV|-------------------------------|--------------------------||-11-------------12-------------|-9-------------(9)--------||-------------------------------|--------------------------||-11-------------13-------------|-9--------------8---------||-------------------------------|--------------------------||--9-------------11-------------|-7--------------6---------|
Interlude G# G#5/Eb G#5 E N.C.|------------|------------|-------------|-------------------||------9---9-|-(9)--------|--9-----9----|-------------------||------8---9-|-(9)--------|--8-----9----|-------------------||-6----------|------------|-------------|-11--13-9--9-11-8--||------------|------------|-------------|-------------------||------------|------------|-------------|-------------------|
|
|------------|------------|-------------|-------------------||------------|------------|-------------|-------------------||------------|------------|--6-----9----|-------------------||-6----8---9-|-(9)--------|-------------|-11--13-9--9-11-8--||------------|------------|-------------|-------------------||------------|------------|-------------|-------------------|
|
|------------|------------|-------------|-------------------||-9----------|-(9)--------|-(9)---------|-(9)-------7-------||------------|------------|-------------|-------------------||------------|------------|-------------|-------------------||------------|------------|-------------|-------------------||------------|------------|-------------|-------------------|
G# G#5/Eb G#5/Eb E N.C.|------------|------------|-------------|-------------------||------9---9-|-(9)--------|--9-----9----|-------------------||------8---9-|-(9)--------|--8-----9----|-------------------||-6----------|------------|-------------|-11--13-9--9-11-8--||------------|------------|-------------|-------------------||------------|------------|-------------|-------------------|
|
|------------|------------|-------------|-------------------||------------|------------|-------------|-------------------||------------|------------|--6-----9----|-------------------||-6----8---9-|-(9)--------|-------------|-11--13-9--9-11-8--||------------|------------|-------------|-------------------||------------|------------|-------------|-------------------|
|
|------------|------------|-------------|-------------------||-9----------|-(9)--------|-(9)---------|-(9)-------7-------||------------|------------|-------------|-------------------||------------|------------|-------------|-------------------||------------|------------|-------------|-------------------||------------|------------|-------------|-------------------|
G# G#5/Eb G#5/Eb E N.C.|------------|------------|--------------|-------------------||------9---9-|-(9)--------|--9------9----|-------------------||------8---9-|-(9)--------|--8------9----|-------------------||-6----------|------------|--------------|-11--13-9--9-11-8--||------------|------------|--------------|-------------------||------------|------------|--------------|-------------------|
|
|------------|------------|--------------|-------------------||------------|------------|--------------|-------------------||------------|------------|--6------9----|-------------------||-6----8---9-|-(9)--------|--------------|-11--13-9--9-11-8--||------------|------------|--------------|-------------------||------------|------------|--------------|-------------------|
|
|------------|------------|--------------|-------------------||-9----------|-(9)--------|-(9)----------|-(9)-------7-------||------------|------------|--------------|-------------------||-6----8-----|--9---------|-11-----13----|--9--------8-------||------------|------------|--------------|-------------------||-4----6-----|--7---------|--9-----11----|--7--------6-------|
G#5 G#5/Eb G#5/EbE N.C.|------------|------------|-------------|--------------------||------9---9-|-(9)--------|--9-----9----|--------------------||------8---9-|-(9)--------|--8-----9----|--------------------||-6----------|------------|-------------|-11-13-9---9--11-8--||------------|------------|-------------|--------------------||------------|------------|-------------|--------------------|
|
|------------|------------|-------------|--------------------||------------|------------|-------------|--------------------||------------|------------|--6-----9----|--------------------||-6----8---9-|-(9)--------|-------------|-11-13-9---9--11-8--||------------|------------|-------------|--------------------||------------|------------|-------------|--------------------|
|
|------------|------------|-------------|--------------------||-9----------|-(9)--------|-11----12----|--9-------(9)-------||------------|------------|-------------|--------------------||-6----4-----|-14---------|-11----13----|--9--------8--------||------------|------------|-------------|--------------------||-4----2-----|-12---------|--9----11----|--7--------6--------|
Guitar Solo E5|------------------|------------------------||------------------|------------------------||------------------|------------------------||-2----------------|-(2)--------------------||-2----------------|-(2)--------------------||-0----------------|-(0)--------------------|
|
|------------------|------------------------||------------------|------------------------||------13s15-15-15s|=16--16-16s18-18-18s20--||------------------|------------------------||------------------|------------------------||------------------|------------------------|
E5 F#5|---------------------------|--------------------||---------------------------|--------------------||---------------------------|--------------------||--2------------------------|-(2)----------4-----||--2------------------------|-(2)----------4-----||--0------------------------|-(0)----------2-----|
|
| ~~~|-------19----18b19r==18-16-|-18-----------------||----17---------------------|--------------------||-20-------20---------------|--------15-16-------||---------------------------|----------------16--||---------------------------|--------------------||---------------------------|--------------------|
E5|--------------------------|------------------||--------------------------|------------------||--------------------------|------------------||--2-----------------------|-(2)--------------||--2-----------------------|-(2)--------------||--0-----------------------|-(0)--------------|
|
|-16b18----16b19r16--16-14-|-16-------(16)-14-||--------------------------|------------------||--------------------------|------------------||--------------------------|------------------||--------------------------|------------------||--------------------------|------------------|
E5 F#5|-------------------------------------------------------------------------|-------------------------||-------------------------------------------------------------------------|-------------------------||-------------------------------------------------------------------------|-------------------------||--2----------------------------------------------------------------------|-(2)-------4-------------||--2----------------------------------------------------------------------|-(2)-------4-------------||--0----------------------------------------------------------------------|-(0)-------2-------------|
|
| ~~~|-11-12-11-12-11-12-------------------------------------------------------|-------------------------||-------------------14-12-11-12-11-12-------------------------------------|----------------15b16----||-------------------------------------13-15-13-15-13-15-13-11-13-11-13-11-|-13-------13-13----------||-------------------------------------------------------------------------|-------------------------||-------------------------------------------------------------------------|-------------------------||-------------------------------------------------------------------------|-------------------------|
E5|---------------------------------------------||---------------------------------------------||---------------------------------------------||--2------------------------------------------||--2------------------------------------------||--0------------------------------------------|
|
| ~~|-14---14-11-12-11-12-11-12-------------------||---------------------------14-12-11-12-11-12-||---------------------------------------------||---------------------------------------------||---------------------------------------------||---------------------------------------------|
E5|---------------------------------------------------------------------||---------------------------------------------------------------------||---------------------------------------------------------------------||-(2)-----------------------------------------------------------------||-(2)-----------------------------------------------------------------||-(0)-----------------------------------------------------------------|
|
|--------------------18-19-18-19-18-19-18-11-12-11-12-11-12-----------||-----------------------------------------------------------14-12-11--||-13--15-13-15-13-15--------------------------------------------------||---------------------------------------------------------------------||---------------------------------------------------------------------||---------------------------------------------------------------------|
E5|-------------------------------------------------------------------||-------------------------------------------------------------------||-------------------------------------------------------------------||--2----------------------------------------------------------------||--2----------------------------------------------------------------||--0----------------------------------------------------------------|
|
|-------------------------------------------------------------------||-12-11-12----------------------------------------------------------||----------13-15-13-15-13-15-13-11-13-11-13-11-9-11-9-11-9-11-6-8-6-||-------------------------------------------------------------------||-------------------------------------------------------------------||-------------------------------------------------------------------|
F#5|---------------------||---------------------||---------------------||-(2)-----------4-----||-(2)-----------4-----||-(0)-----------2-----|
|
|---------------------||---------------------||--8--6-8-6-------(6)-||---------------------||---------------------||---------------------|
E5|----------------------------------------------------||----------------------------------------------------||----------------------------------------------------||--2-------------------------------------------------||--2-------------------------------------------------||--0-------------------------------------------------|
|
|-------11-------11-------11-------11-------11-------||-14b16----14b16----14b16----14b16----14b16----14b16-||----------------------------------------------------||----------------------------------------------------||----------------------------------------------------||----------------------------------------------------|
E5 F#5|-------------------------------------------------------|-------------------------|-------------------||-------------------------------------------------------|-------------------------|-------------------||-------------------------------------------------------|-------------------------|-------------------||-(2)---------------------------------------------------|--2----------------------|-(2)------------4--||-(2)---------------------------------------------------|--2----------------------|-(2)------------4--||-(0)---------------------------------------------------|--0----------------------|-(0)------------2--|
|
|-11--------11-------11-------11-------11-11------------|----14b15----14----------|-------------------||-----14b16----14b16----14b16----14b16-------14b16r(14)-|-12-------------14-16-14-|-12--11--------14--||-------------------------------------------------------|-------------------------|--------13-11------||-------------------------------------------------------|-------------------------|-------------------||-------------------------------------------------------|-------------------------|-------------------||-------------------------------------------------------|-------------------------|-------------------|
Outro G#sus4 G#sus4/A||--------------------------------------------------|||o-------------------------------------------------|||--------------------------------------------------|||---6--6--6--6--6--6--6--6--7--7--7--7--7--7--7--7-|||o-------------------------------------------------|||--------------------------------------------------|
|
| Gtr II||--------------------------------------------------|||o-14-14-14-14-14-14-14-14-14-14-14-14-14-14-14-14-|||--13-13-13-13-13-13-13-13-13-13-13-13-13-13-13-13-|||--------------------------------------------------|||o-------------------------------------------------|||--------------------------------------------------|
|
| Gtrs III, IV||--------------------------------------------------|||o-14----------------------------------------------|||--------------------------------------------------|||--------------------------------------------------|||o-------------------------------------------------|||--------------------------------------------------|
1.,2.,3. F#sus2 G#sus4 F#sus4 Esus4 G#sus4 F#sus4|---------------------------------------------------|--------------------------------------------------||---------------------------------------------------|--------------------------------------------------||---------------------------------------------------|--------------------------------------------------||---4---4--4--4--6--6--6--6--6--6--6--6--6--6--6--6-|--4--4--4--4--------------------------6--6--6--6--||---------------------------------------------------|--------------7--7--7--7--7--7--7--7--------------||---------------------------------------------------|--------------------------------------------------|
|
|---------------------------------------------------|--------------------------------------------------||--14--14-14-14-14-14-14-14-14-14-14-14-14-14-14-14-|-12-12-12-12-------------------------14-14-14-14--||--13--13-13-13-13-13-13-13-13-13-13-13-13-13-13-13-|-11-11-11-11-14-14-14-14-14-14-14-14-13-13-13-13--||---------------------------------------------------|-------------14-14-14-14-14-14-14-14--------------||---------------------------------------------------|--------------------------------------------------||---------------------------------------------------|--------------------------------------------------|
|
|---------------------------------------------------|--------------------------------------------------||-(14)----------------------------------------------|--------------------------------------------------||---------------------------------------------------|-14-----------------------------------------------||---------------------------------------------------|--------------------------------------------------||---------------------------------------------------|--------------------------------------------------||---------------------------------------------------|--------------------------------------------------|
F#sus4 4x|----------------------------------------------------|||---------------------------------------------------o|||----------------------------------------------------|||---4---4--4--4--4--4--4--4--4--4--4--4--4--4--4--4--|||---------------------------------------------------o|||----------------------------------------------------||
|
| 4x|----------------------------------------------------|||--12--12-12-12-12-12-12-12-12-12-12-12-12-12-12-12-o|||--11--11-11-11-11-11-11-11-11-11-11-11-11-11-11-11--|||----------------------------------------------------|||---------------------------------------------------o|||----------------------------------------------------||
|
| Gtrs III, IV| 4x|----------------------------------------------------|||---------------------------------------------------o|||-(14)-----------------------------------------------|||----------------------------------------------------|||---------------------------------------------------o|||----------------------------------------------------||
4. B D C E D E#|----------------------------------|-----------------------------------------||----------------------------------|-----------------------------------------||-4-4-4-4-4-4-4-4--7-7-7-7-5-5-5-5-|--9-9-9-9--7-7-7-7-7-7-7-7-10-10-10-10---||----------------------------------|-----------------------------------------||----------------------------------|-----------------------------------------||----------------------------------|-----------------------------------------|
|
|----------------------------------|-----------------------------------------||----------------------------------|-----------------------------------------||----------------------------------|-----------------------------------------||----------------------------------|-----------------------------------------||----------------------------------|-----------------------------------------||----------------------------------|-----------------------------------------|
|
|-7---------------10-------8-------|-12-------10---------------13------------||----------------------------------|-----------------------------------------||-4----------------7-------5-------|--9--------7---------------10------------||----------------------------------|-----------------------------------------||----------------------------------|-----------------------------------------||----------------------------------|-----------------------------------------|
E Fx E# A Fx B|------------------------------------------|-------------------------------------------------||------------------------------------------|-------------------------------------------------||--9-9-9-9-9-9-9-9-12-12-12-12-10-10-10-10-|-14-14-14-14-12-12-12-12-12-12-12-12-16-16-16-16-||------------------------------------------|-------------------------------------------------||------------------------------------------|-------------------------------------------------||------------------------------------------|-------------------------------------------------|
|
| Gtrs III, IV|-12---------------15----------13----------|-17----------15----------------------19----------||------------------------------------------|-------------------------------------------------||--9---------------12----------10----------|-14----------12----------------------16----------||------------------------------------------|-------------------------------------------------||------------------------------------------|-------------------------------------------------||------------------------------------------|-------------------------------------------------|
A C#5|-------------------------------------------------|----------*||-------------------------------------------------|----------*||-14-14-14-14-14-14-14-14-14-14-14-14-14-14-14-14-|----------*||-------------------------------------------------|-11\------*||-------------------------------------------------|-11\------*||-------------------------------------------------|--9\------*|
|
|-17----------------------------------------------|----------*||-------------------------------------------------|-14-------*||-14----------------------------------------------|-13-------*||-------------------------------------------------|-11-------*||-------------------------------------------------|----------*||-------------------------------------------------|----------*|
Please rate this tab:
x1.0