Call Of The Wild tab with lyrics by Roxette - Easy chords and tabs for guitar

Roxette – Call Of The Wild tab

Call Of The Wild

| *1&2* || **3**|----------------------------------------||----------------||----------------------------------------||----------------||--4--6------2-----/6--4---4--6----------||--------2-------||--4--6------2-----/6--4---4--6------2---||------2-2-------||--2--4----0---00----------2--4--4-2---4-||--4-2---0-------||----------------------------------------||----------------|
"in this last and final hour..."|----------------------------------------------------------||--------------------------------------------5-4-----------||-6----------------4---6-----------4--2--6-------4---------||-6----------------4---6-----------4--2--6---------4-2-----||-4----------------2---4-----------2--0--4-----------------||----------------------------------------------------------|
"its the call of the wild"|----------------------------------------------------------||----------------------------------------------------------||----------------------------------------------------------||---4-3-4-3h4p3---3--4--------4-3-4-3h4p3------------------||-2-------------5-----------2-------------5--4-------------||-----------------------------------------------4-3-2------|
"calling you, hero..."|----------------------------------------------------------||----------------------------------------------------------||--7------4--6------2-----/6--4--4--6----------------------||--7--7---4--6------2-----/6--4--4--6-------2--------------||--5--7---2--4----0---0-0--------2--4---4-2---4------------||-----5----------------------------------------------------|
|----------------------------------------------------------||-----6-----6-----6-----6-----6----------------------------||---7-----7-----7-----7-----7------------------------------||-0-----0-----0-----0-----0--------------------------------||----------------------------------------------------------||----------------------------------------------------------|
|
|-------8--5-----------------------------------------------||-----6------6----------------8--6-------------------------||---7----------7-----5-7-8----------7\5-7------------------||----------------------------------------------------------||----------------------------------------------------------||----------------------------------------------------------|
(in background)|-----------------------13-12-10---------------------------||-13^---13^p10-13^-13^-----------13-10---------------------||--------------------------------------12^-----------------||----------------------------------------------------------||----------------------------------------------------------||----------------------------------------------------------|
|----------------------------------------------------------||----------------------------------------------------------||-2-----2-------------2-----2--------------3---------------||-2-----2-------------2-----2------------3-----------------||-0-----0-------/3-1--0-----0-------/3-1-------------------||----3~-----0-1----------3~-----0-1------------------------|
Solo:|----------10----------------------------------------------||-13^-13^-----13-10----------------------------------------||-------------------12-10----12^-10------------------------||-------------------------12--------12--10-----------------||------------------------------------------12\10-^^p8------||-----------------------------------------------------10---|
|----------------------------------------------------------||---------------------------------13-15^---^^p13-15--------||-------------------------10-12/14-------------------------||-------------------10-12----------------------------------||------8-10p8-10/12----------------------------------------||-8-10-----------------------------------------------------|
|----------------------------------------------------------||-13----------13^^p10--------------------------------------||----14p12-14---------12^---^^p10----------------10--------||---------------------------------12------10h12-----12-----||----------------------------------------------------------||----------------------------------------------------------|
|--------------------------15^----13-12----13-12-----------||---------------------------------------15-------15--------||-12^-12-10-------------10---------------------------------||-----------12----10h12------------------------------------||----------------------------------------------------------||----------------------------------------------------------|
|------------------------------------------------------------||-18p17p15-13p15h13-10h13p10h13------------------------------||------------------------------12p10h12p10h12p10-------------||------------------------------------------------10h12p10h12-||------------------------------------------------------------||------------------------------------------------------------|
|-----------------------------------------------15^---15-17-||-----------------------------------------13-15-------------||--------------------------------10-12/14-------------------||--------------------------10/12----------------------------||-10h12p10\8--8-10/12-10h12---------------------------------||-----------10----------------------------------------------|
|-17-20^-20^-20^--^^^p17-22^^^22---------13-12-------10----||----------------------------------\-/15-------15-13^------||----------------------------------------------------------||----------------------------------------------------------||----------------------------------------------------------||----------------------------------------------------------|
|----------------------------------------------------------||-13p10----------------------------------------------------||------------------10----------12^p10----10----------10----||-------12---10h12----12-10-12--------12----12-10h12-------||----------------------------------------------------------||----------------------------------------------------------|
"fear of the devil..."|----------------------------------------------------------||-------13-15^-^p14----------------------------------------||-12/14-----------6-------------4--6-----------------------||-----------------6-------------4--6-----------------------||-----------------4-------------2--4-----------------------||----------------------------------------------------------|
Please rate this tab:
x1.0