Rubberslime - Vsp tab

                                   Rubberslime - V.S.P.


by: malle


Intro:

      G                           D

---------------------------------------------------|---------------------------------------------------|-14--14--14---12---11----------------------11------|------------------------12----12--14--14-----------|---------------------------------------------------|---------------------------------------------------|
G D
---------------------------------------------------|---------------------------------------------------|-14--14--14---12---11------------------------------|------------------------12----12--14--14--12-------|---------------------------------------------------|---------------------------------------------------|
G D
---------------------------------------------------|---------------------------------------------------|-14--14--14---12---11------------------------------|------------------------12---12--14--14--12--------|---------------------------------------------------|---------------------------------------------------|
A D
-------------------------------|-------------------------------|-------------------------------|--------11--12--14--12---------|-12-12-------------------------|-------------------------------|
Verse: D A H A G D A G D A H A G E A Refrain: G D (2x) G A H G D (2x) G A D Bridge: G D
---------------------------------------------------|---------------------------------------------------|-14--14--14---12---11----------------------11------|------------------------12----12--14--14-----------|---------------------------------------------------|---------------------------------------------------|
G D
---------------------------------------------------|---------------------------------------------------|-14--14--14---12---11------------------------------|------------------------12----12--14--14--12-------|---------------------------------------------------|---------------------------------------------------|
G D
---------------------------------------------------|---------------------------------------------------|-14--14--14---12---11------------------------------|------------------------12---12--14--14--12--------|---------------------------------------------------|---------------------------------------------------|
A D
-------------------------------|-------------------------------|-------------------------------|--------11--12--14--12---------|-12-12-------------------------|-------------------------------|
Verse: D A H A G D A G D A H A G E A Refrain: G D (2x) G A H G D (2x) G A D D D D D D D D D D D D D D D D D D D G D (2x) G A H G D (2x) G A D Dsus2 D D Dsus2 D D Dsus2 D Dsus4 D
Tap to rate this tab
 
# A B C D E F G H I J K L M N O P Q R S T U V W X Y Z