Rufio - Dont Hate Me tab version 2

Don't hate me - Rufio
tabber - shonofear


Intro Gtr 1-|----------------------------------x2-|-|--------------------7p5p4------------|-|-44-33---------4----------6----3---3-|-|-**-**-4--2-4----4-----------4---4---|-|-------*--*------*-----------*---*---|-|-------------------------------------|
Gtr 2-|----------------------------|-------------------------------|-|----------------------------|-------------------------------|-|-------------44444----6---6-|-------------44444-4p3---3---3-|-|-66666----2--44444--4---4---|-66666----2--44444-----4---4---|-|-66666--2-2--22222--*---*---|-66666--2-2--22222-----*---*---|-|-44444--0-0-----------------|-44444--0-0--------------------| * *
Intro 2 Gtr 1-|----------------------------------------------------------|-|----------------------------------------------------------|-|-44-4-44-4--99-9--1111-11--88-8-88-8--66-6-4--------------|-|----------------------------------------------------------|-|-22-2-22-2--77-7---9-9--9--66-6-66-6--44-4-4------2-1-----|-|----------------------------------------------2-4-----4-2-|
Gtr 2-|----------------------------------------------------------------|-|----------------------------------------------------------------|-|-88-8-88-8--99-9--1111-11--1111-11-1111-11--99-9-9--x-x-x-x-x-x-|-|----------------------------------------------------x-x-x-x-x-x-|-|-66-6-66-6--77-7---9-9--9---9-9--9--9-9--9--77-7-7--x-x-x-x-x-x-|-|----------------------------------------------------x-x-x-x-x-x-|
Gtr 1-|---------------------------------------------|-|---------------------------------------------|-|-44-4-44-4--99-9--1111-11--88-8-88-8---------|-|--------------------------------------44-4-4-|-|-22-2-22-2--77-7---9-9--9--66-6-66-6--44-4-4-|-|--------------------------------------22-2-2-|
Gtr 2-|---------------------------------------------------|-|---------------------------------------------------|-|-88-8-88-8--99-9--1111-11--1111-11-1111-11--99-9-9-|-|---------------------------------------------------|-|-66-6-66-6--77-7---9-9--9---9-9--9--9-9--9--77-7-7-|-|---------------------------------------------------|
Verse Gtr 1-|------------------------|--------------------|-|------------------------|--------------------|-|------8----9----4-------|------8----4--------|-|-6----9-r--9-r--4-r-4---|-6----9-r--4-r--4---|-|-6-r--6----7----2---4-r-|-6-r--6----2----4-r-|-|-4------------------2---|-4--------------2---|
Gtr 2-|------------------------|--------------------|-|------------------------|--------------------|-|-8----11---16---16--15--|-8----11---16---15--|-|---r----r----r----r---r-|---r----r----r----r-|-|-6-----9---14---14--13--|-6-----9---14---13--|-|------------------------|--------------------|
Chorus Gtr 1-|---------------------------------------x2-|-|------------------------------------------|-|-8-6-4-333--11-9-8-444------------4-3-----|-|----------------------------4---------4---|-|-6-4-2-111--/9-7-6-222----2---2---------2-|-|------------------------4-------4---------|
Gtr 2-|---------------------------|-|---------------------------|-|-------------------444-----|-|-2-----4-----6-----444-4---|-|-2-10--4-10--6-10--222-4-6-|-|-0-----2-----4---------2---|
-|-------------------------------------------------------|-|-------------------------------------------------------|-|-----------------------------------------------444-----|-|-2------2------2-----4------4------4444--6-----444-4---|-|-2-2222-2-2222-2-22--4-4444-4-4444-4444--6-10--222-4-6-|-|-0-0000-0-0000-0-00--2-2222-2-2222-2222--4---------2---| **** **** ** **** ****
Ending Gtr 1-|----------------|-|----------------|-|-4----44-4--6---|-|---r----------r-|-|-2----22-2--4---|-|------**--------|
Gtr 2-|----------------|-|----------------|-|----------------|-|-2-------2--4---|-|-2-r--22-2--4-r-|-|-0----00-0--2---| **
Verse 2 Gtr 1-|-----------------------------------------------------------------x2-|-|--------------------------------------------------------------------|-|-----4-----4---4------4-----4---4------4-----4---3------3-----3---4-|-|---4---4-----4------4---4-----4------4---4-----4------4---4-----4---|-|-----------------------------------2-------2------------------------|-|-4-------4--------0-------0-------------------------2-------2-------|
Gtr 2 - x2-|-----------------------|----------------------------------------------|-|------12------12----12-|------12------12----12-------11------11----11-|-|---11----11------11----|---11----11------11-------11----11------11----|-|-9----------9----------|------------------------9----------9----------|-|-----------------------|-9----------9---------------------------------|-|--------------------x2-|----------------------------------------------|
Intro Gtr 1-|------------------------------------------------------------------|-|-------------------------------------------------7p5p4------------|-|-44-33----------44-33-6----6---44-33---------4---------6----6---6-|-|-**-**-4--2-4---**-**-*--4-----**-**-4--2-4----4----------4---4---|-|-------*--*--------------*-----------*--*------*----------*---*---|-|------------------------------------------------------------------|
Gtr 2-|-------------------------------------------------------|-|-------------------------------------------------------|-|-------------44444-------------------44444-4p3---6---6-|-|-66666----2--44444----4--66666----2--44444-----4---4---|-|-66666--2-2--22222--4-4--66666--2-2--22222-----*---*---|-|-44444--0-0---------2-2--44444--0-0--------------------|
* * * Gtr 1-|------------------------------------------------------------------|-|-------------------------------------------------7p5p4------------|-|-44-33----------44-33-6----6---44-33---------4---------6----3---3-|-|-**-**-4--2-4---**-**-*--4-----**-**-4--2-4----4----------4---4---|-|-------*--*--------------*-----------*--*------*----------*---*---|-|------------------------------------------------------------------|
Gtr 2-|------------------------------------------------|-|------------------------------------------------|-|-------------44444-------------------44444------|-|-66666----2--44444----4--66666----2--44444--4---|-|-66666--2-2--22222--4-4--66666--2-2--22222--4-6-|-|-44444--0-0---------2-2--44444--0-0---------2---| * * *
Chorus 2 Gtr 1-|---------------------------------------x2-|-|------------------------------------------|-|-8-6-4-333--11-9-8-444------------4-3-----|-|----------------------------4---------4---|-|-6-4-2-111-/-9-7-6-222----2---2---------2-|-|------------------------4-------4---------|
Gtr 2-|-----------------------------------------------|---------------|-|-----------------------------------------------|---------------|-|-------------------666------4-3--------4-3-----|-------666-----|-|-2-----4-----6-----666-6--------4----------4---|-6-----666-6---|-|-2-10--4-10--6-10--444-6-6--------2--2-------2-|-6-10--444-6-6-|-|-0-----2-----4---------4-----------------------|-4---------4---|
Ending Gtr 1-|----------------|-|----------------|-|-4----44-4--5---|-|---r----------r-|-|-2----22-2--3---|-|------**--------|
Gtr 2-|----------------|-|----------------|-|----------------|-|-2-------2--4---|-|-2-r--22-2--4-r-|-|-0----00-0--2---| **
Verse 3 Gtr 1-|--------------------------------------------------------------------|-|--------------------------------------------------------------------|-|-----4-----4---4------4-----4---4------4-----4---3------3-----3---4-|-|---4---4-----4------4---4-----4------4---4-----4------4---4-----4---|-|-----------------------------------2-------2------------------------|-|-4-------4--------0-------0-------------------------2-------2-------|
-|--------------------------------------------------------|-|--------------------------------------------------------|-|-----4-----4---4------4-----4---4------6-----6---6------|-|---4---4-----4------4---4-----4------4---4-----4--------|-|-----------------------------------2-------2------------|-|-4-------4--------0-------0-------------------------2-r-|
Gtr 2-|-----------------------|----------------------------------------------|-|------12------12----12-|------12------12----12-------11------11----11-|-|---11----11------11----|---11----11------11-------11----11------11----|-|-9----------9----------|------------------------9----------9----------|-|-----------------------|-9----------9---------------------------------|-|--------------------x2-|----------------------------------------------|
-|-----------------------|-------------------------|-|------12------12----12-|------12------12-r-------|-|---11----11------11----|---11----11---------11-r-|-|-9----------9----------|-------------------------|-|-----------------------|-9----------9------------|-|--------------------x2-|-------------------------|
Intro 2 Gtr 1-|------------------------------------------------------------|-|------------------------------------------------------------|-|-44-4-44-4--1111-11-1111-11--88-8-88-8--99-9-9--x-x-x-x-x-x-|-|------------------------------------------------x-x-x-x-x-x-|-|-22-2-22-2---9-9--9--9-9--9--66-6-66-6--77-7-7--x-x-x-x-x-x-|-|------------------------------------------------x-x-x-x-x-x-|
Gtr 2-|------------------------------------------------------|-|------------------------------------------------------|-|-----------------------44-4-44-4----------x-x-x-x-x-x-|-|-66-6-66-6--22-2-22-2--44-4-44-4--44-4-4--x-x-x-x-x-x-|-|-66-6-66-6--22-2-22-2--22-2-22-2--44-4-4--x-x-x-x-x-x-|-|-44-4-44-4--00-0-00-0-------------22-2-2--x-x-x-x-x-x-|
Gtr 1-|------------------------------------------------|-----------|-|------------------------------------------------|-----------|-|-44-4-44-4--1111-11-1111-11--88-8-88-8--99-9-99-|-8--6--4---|-|------------------------------------------------|---------r-|-|-22-2-22-2---9-9--9--9-9--9--66-6-66-6--77-7-77-|-6--4--2---|-|------------------------------------------------|-----------|
Gtr 2 -|------------------------------------------|-----------|-|------------------------------------------|-----------|-|-----------------------44-4-44-4----------|-----------|-|-66-6-66-6--22-2-22-2--44-4-44-4--44-4-44-|-6--4--2---|-|-66-6-66-6--22-2-22-2--22-2-22-2--44-4-44-|-6--4--2-r-|-|-44-4-44-4--00-0-00-0-------------22-2-22-|-4--2--0---|
Break Gtr 1-|-----|----------------------|--------------------|-|-----|----------------------|--------------------|-|-4---|-4-----6-----8----3---|-4----6----8----8---|-|---r-|---r-----r-----r----r-|---r----r----r----r-|-|-2---|-2----/4----/6----1---|-2----4----6----6---|-|-----|----------------------|--------------------|
Gtr 2-|-------------------|------------------------x2-|-----|-|-------------------|---------------------------|-----|-|-xx--13---11-9-8---|-xx--13---xx--15---xx--16--|-16--|-|-xx----r---------r-|-xx----r--xx----r--xx----r-|---r-|-|-xx-/11----9-7-6---|-xx-/11---xx-/13---xx-/14--|-14--|-|-xx----------------|-xx-------xx-------xx------|-----|
Chorus 2 (Different ending)
Ending Gtr 1-|----------------------|-|----------------------|-|-4----44-4--6----66-6-|-|---r----------r-------|-|-2----22-2--4----44-4-|-|------**---------**---|
Gtr 2-|----------------------|-|----------------------|-|----------------------|-|-2-------2--4-------4-|-|-2-r--22-2--4-r--44-4-|-|-0----00-0--2----22-2-| ** **
Outro Gtr 1-|-------------------------------|-|-------------------------------|-|-------------44444-4p3---3---3-|-|-66666----2--44444-----4---4---|-|-66666--2-2--22222-----*---*---|-|-44444--0-0--------------------|
* Gtr 2-|-------------------------------|-|-------------------------------|-|-------------44444-4p3---6---6-|-|-66666----2--44444-----4---4---|-|-66666--2-2--22222-----*---*---|-|-44444--0-0--------------------|
* Gtr 1-|-------------------------------------------------|-|-------------------7p5p4-------------------------|-|-44-33---------4---------6----3---3---3---3--4-r-|-|-**-**-4--2-4----4----------4---4---4---4--------|-|-------*--*------*----------*---*---*---*--------|-|-------------------------------------------------|
Gtr 2-|-----------------------------------------------|-|-----------------------------------------------|-|-------------44444-4p3----6---6---6---6--6/8-r-|-|-44444----2--44444------4---4---4---4----------|-|-44444--2-2--22222------*---*---*---*----------|-|-22222--0-0------------------------------------| *
Tap to rate this tab
 
# A B C D E F G H I J K L M N O P Q R S T U V W X Y Z