Rufio – Like A Prayer tab ver. 2

Like a Prayer - Rufio
tabber - shonofear

Tuning: DADGBe

Intro Gtr 1-|-1-------------------------x2-|--------------|-|------------------------------|--------------|-|------------------------------|--------------|-|----3-----3-----2-----0-------|----3-----3---|-|------5-----5-----5-----5---5-|------5-----5-|-|-00-----0-----0-----0-----0---|-00-----0-----|
Gtr 2-|------------0-r----------------------0-r----------|------------0-r---------|-|------10--------10----10-r-----10--------10----10-|------10--------10---10-|-|-1010----10--------10-------10----10--------10----|-1010----10--------10---|-|--------------------------------------------------|------------------------|-|--------------------------------------------------|------------------------|-|-----------------------------------------------x2-|------------------------|
Gtr 1-|----------------------------------------------------------|-|----------------------------------------------------------|-|-----5--------5--------5--------5--------5-------0h2--2---|-|-------3----3---3----3---3----3---3----3---3----------0---|-|---3------1--------0--------1--------3----------------0-r-|-|-2-------------------------------------------5p3------0---|
Gtr 2-|-8--------8-------8-------8--------------------------|-|---6---6----6-5-6---6-5-6---6-5----------6--5--------|-|-----5-------------------------------5--------5--7---|-|---------------------------------5h7---7---------7-r-|-|-------------------------------------------------5---|-|-----------------------------------------------------|
Intro 2 Gtr 1-|---------------------------------------|-|---------------------------------------|-|---------------------------------------|-|-3-r-----3-5-/7-r----7777-7-7-7777-7-7-|-|---------*-*---------****-*-*-****-*-*-|-|---------------------------------------|
Gtr 2-|---------------------------------------|-|---------------------------------------|-|---------------------------------------|-|-7-r---------10-r----------------------|-|---------------------------------------|-|---------------------------------------|
Chorus 1 Gtr 1-|-----5---8-5---5-----------------------------------------------------------|-|-------6-----8----6}---6---66-5-6-------------------------------8----10----|-|---5-----------------5---5-----------------10----9-10------10-----10----10-|-|-7------------------------------------10------10---------------------------|-|-----------------------------------88----8-------------88------------------|-|-----------------------------------**----*-------------**------------------|
-|-----5---8-5---5-------------------------------------------------------------|-|-------6-----8----------------------------------------------------8----10----|-|---5---------------------10----9-10---------10----9-10--10101010----10----10-|-|-7------------------10------10---------10------10----------------------------|-|-----------------88----8------------88----8--------------8-8-8-8-------------|-|-----------------**----*------------**----*----------------------------------|
Gtr 2-|-------------------------------------13---13--------------------------------------------|-|-------------------------------13------13---13----------11------13----------------------|-|----------10/12-10-9-10p9----9---------------------10------10---------10-------14----14-|-|-------10-----------------10------10------------88----8-------8----77----7-/12----12----|-|-8-7-8----------------------------------------------------------------------------------|-|-------------------------------------------------------------------------------------x2-|
Verse 1 Gtr 1-|---------------------|---------------------------|-|---------------------|---------------------------|-|-3----5----9----10---|-3----5----9----9-10-12-10-|-|--12---12---12----12-|--12---12---12-------------|-|-1----3----7-----8---|-1----3----7----7--8-10--8-|-|---------------------|---------------------------|
Gtr 2-|------------------------|-------------------------------|-|------------------------|-------------------------------|-|-15----14----12----14---|-15----14----12----12-14-15-14-|-|---12----12----12----12-|---12----12----12--------------|-|-13----12----10----12---|-13----12----10----10-12-13-12-|-|------------------------|-------------------------------|
Gtr 1-|--------------------------------------------------------------------|-|--------------------------------------------------------------------|-|--------------------------------------------------------------------|-|--------------------------------------------------------------------|-|-8888888888888888-8888888888888888-777777777777777-8888888888888888-|-|-****************-****************-***************-****************-|
Gtr 2-|------------------------------------------------------------------------------------|-|------------------------------------------------------------------------------------|-|------------------10101010101010101010101010101010-999999999999999-7777777777777777-|-|-8888888888888888--*-*-*-*-*-*-*-*-*-*-*-*-*-*-*-*-***************-****************-|-|-****************-------------------------------------------------------------------|-|------------------------------------------------------------------------------------|
Gtr 1-|---------------------------------------------------------------|-|---------------------------------------------------------------|-|----------------------------------------------------9-10-12-10-|-|---------------------------------------------------------------|-|-8888888888888888-3333333333333333-7777777777777777-7--8-10--8-|-|-****************-****************-****************------------|
Gtr 2-|------------------------------------------------------------------------------|-|------------------------------------------------------------------------------|-|------------------10101010101010101010101010101010-99999999999999-12-14-15-14-|-|-8888888888888888--*-*-*-*-*-*-*-*-*-*-*-*-*-*-*-*-**************-------------|-|-****************-------------------------------------------------10-12-13-12-|-|------------------------------------------------------------------------------|
Break Gtr 1-|---------------------------------------|----------------------------|-|---------------------------------------|----------------------------|-|------1010------99------1212------1010-|------1010-----99------1212-|-|---------------------------------------|----------------------------|-|-00-0--8-8-00-0-77-00-0-1010-00-0--8-8-|-00-0--88-00-0-77-00-0-1010-|-|-00-0------00-0----00-0------00-0------|-00-0-----00-0----00-0------| ** * ** * ** * ** * ** * ** * ** *
Gtr 2-|-----------------------------------------|-------------------------------|-|-----------------------------------------|-------------------------------|-|------1414------1212------1515------1414-|------1414------1212------1515-|-|-----------------------------------------|-------------------------------|-|-00-0-1212-00-0-1010-00-0-1313-00-0-1212-|-00-0-1212-00-0-1010-00-0-1313-|-|-00-0------00-0------00-0------00-0------|-00-0------00-0------00-0------| ** * ** * ** * ** * ** * ** * ** *
Chorus 2 Gtr 1-|-----5---8-5---5-------------------------------------------------------8----|-|-------6-----8----------------------------------------------------8------10-|-|---5---------------------10----9-10--1010------10----9-10-----------10------|-|-7------------------10------10------------1010----10----------10------------|-|-----------------88----8-----------------------------------88---------------|-|-----------------**----*-----------------------------------**---------------|
-|-----5---8-5---5---------------------------------------------------------|-|-------6-----8------------------------------------------------8----10----|-|---5---------------------1010-9-10----------1010-9-10-----------10----10-|-|-7------------------10-----------------10-----------------10-------------|-|-----------------88----8------------88----8------------88----------------|-|-----------------**----*------------**----*------------**----------------|
Gtr 2 (same as chorus 1)
Verse 2 Gtr 1-|--------------------|----------------------------|-|--------------------|----------------------------|-|-3----5----9----10--|-10---10----9----9-10-12-10-|-|--r----r----r-----r-|---r----r----r--------------|-|-1----3----7-----8--|--8----8----7----7--8-10--8-|-|--------------------|----------------------------|
Gtr 2-|-----------------------|---------------------------------|-|-----------------------|---------------------------------|-|-15----14----12----14--|-15----14----12----12-14-15-14---|-|---r-----r-----r-----r-|---r-----r-----r-----------------|-|-13----12----10----12--|-13----12----10----10-12-13-12-\-|-|-----------------------|---------------------------------|
Gtr 1-|----------------------------------------------|-|----------------------------------------------|-|----------------------------5----5-----5----5-|-|-----3----3-----3----3--333---33---333---33---|-|-111---11---111---11----***---**---***---**---|-|-***---**---***---**--------------------------|
Gtr 2-|-------------------------------------------------------------|-|-------------------------------------------------------------|-|--------------------------------10------10--------10------10-|-|-----7----7-----7----7-/10-1010----1010----101010----1010----|-|-555---55---555---55--------*-*-----*-*-----*-*-*-----*-*----|-|-***---**---***---**-----------------------------------------|
Gtr 1-|----------------------------------------------|-|----------------------------------------------|-|----------------------------------------------|-|-----5----5-----5----5------3----3-----3----3-|-|-333---33---333---33----555---55---555---55---|-|-***---**---***---**----***---**---***---**---|
Gtr 2-|----------------------------------------------------------------|-|----------------------------------------------------------------|-|-----------------------------------14------14--------14------14-|-|-----10----10-----10----10--121212----1212----121212----1212----|-|-777----77----777----77------*-*-*-----*-*-----*-*-*-----*-*----|-|-***----**----***----**-----------------------------------------|
Gtr 1-|----------------------------------------------|-|----------------------------------------------|-|----------------------------5----5-----5----5-|-|-----3----3-----3----3--333---33---333---33---|-|-111---11---111---11----***---**---***---**---|-|-***---**---***---**--------------------------|
Gtr 2-|-------------------------------------------------------------|-|-------------------------------------------------------------|-|--------------------------------10------10--------10------10-|-|-----7----7-----7----7-/10-1010----1010----101010----1010----|-|-555---55---555---55--------*-*-----*-*-----*-*-*-----*-*----|-|-***---**---***---**-----------------------------------------|
Gtr 1-|-----------------------------------|-|-----------------------------------|-|------------------------9-10-12-10-|-|-----5----5-----5----5-------------|-|-333---33---333---33----7--8-10--8-|-|-***---**---***---**---------------|
Gtr 2-|----------------------------------------|-|----------------------------------------|-|----------------------------12-14-15-14-|-|-----10----10-----10----10--------------|-|-777----77----777----77-----10-12-13-12-|-|-***----**----***----**-----------------|
Chorus 3 Gtr 1-|-----5---8-5---5----------------------------------------------------------|-|-------6-----8---------------------------------------------------------88-|-|---5---------------------10----9-10----------1010-9-10--1010------1010----|-|-7------------------10------10----------10-------------------1010---------|-|-----------------88----8-------------88----8------------------------------|-|-----------------**----*-------------**----*------------------------------|
-|-----5---8-5---5-------------------------------------------------------------|-|-------6-----8----------------------------------------------------8----10----|-|---5---------------------1010-9-10----------10----9-10--1010--------10----10-|-|-7------------------10-----------------10------10------------1010------------|-|-----------------88----8------------88----8----------------------------------|-|-----------------**----*------------**----*----------------------------------|
Gtr 2 (Chorus 1)
Post Chorus 1 Gtr 1-|--------------------x4-|-----------------------------------------------|-|-----------------------|-----------------------------------------------|-|----1010----1010----10-|----1010----1010-----10------9-9-----9-9-----9-|-|----1010----1010----10-|----1010----1010-----10-----1010----1010----10-|-|-88------88------88----|-88------88-------88-----77------77------77----|-|-**------**------**----|-**------**-------**-----**------**------**----|
-|-------------------|---------------|-|-------------------|---------------|-|----1010----101010-|---------------|-|----1010----101010-|-10-9----------|-|-88------88--------|--8-7-10-8-7-3-|-|-**------**--------|------10-8-7-3-|
Gtr 2-|-------------------------------------13---13---------------------------------------------|-|-------------------------------13------13---13----------11------13-----------------------|-|----------10/12-10-9-10p9----9---------------------10------10----------10-------14----14-|-|-------10-----------------10------10------------88----8-------8-----77----7-/12----12----|-|-8-7-8-----------------------------------------------------------------------------------|-|-----------------------------------------------------------------------------------------|
-|-------------------------------------13---13----------------------|---------------|-|-------------------------------13------13---13---------11------13-|---------------|-|----------10/12-10-9-10p9----9---------------------10-----10------|---------------|-|-------10-----------------10------10------------88----8------8----|-10-9----------|-|-8-7-8------------------------------------------------------------|--8-7-10-8-7-3-|-|------------------------------------------------------------------|------10-8-7-3-|
Extra bitBridge 1 Gtr 1-|------------------------------|-----------------------------|-|---------------------------10-|-----------------------------|-|---------------------------10-|-----------------------------|-|------------------------------|-55--55-5-5--5-55--55-5-5--5-|-|-00--00-0-0--0-00--00-0000----|-33--33-3-3--3-33--33-3-3--3-|-|-00--00-0-0--0-00--00-0000----|-**--**-*-*--*-**--**-*-*--*-| ** ** * * * ** ** ****
Gtr 2-|------------------------------|-----------------------------|-|------------------------------|-----------------------------|-|------------------------------|-----------------------------|-|------------------------------|-55--55-5-5--5-55--55-5-5--5-|-|-00---------------------------|-33--33-3-3--3-33--33-3-3--3-|-|-00---------------------------|-**--**-*-*--*-**--**-*-*--*-| **
Both Gtrs-|-----------------------------|-----------------------------|-|-----------------------------|-----------------------------|-|-----------------------------|-----------------------------|-|-77--77-7-7--7-77--77-7-7--7-|-55--55-5-5--3-55--55-5-5--5-|-|-55--55-5-5--5-55--55-5-5--5-|-33--33-3-3--3-33--33-3-3--3-|-|-**--**-*-*--*-**--**-*-*--*-|-**--**-*-*--*-**--**-*-*--*-|
Bridge 2 Gtr 1-|--------------------------------------|----------------------|-|--------------------------------------|----------------------|-|-1010-10101010-10101010-10101010-1010-|-99-9999-9999-9999-99-|-|--------------------------------------|----------------------|-|--8-8--8-8-8-8--8-8-8-8--8-8-8-8--8-8-|-77-7777-7777-7777-77-|-|--------------------------------------|----------------------|
Gtr 2-|--------------------------------|--------------------------------|-|--------------------------------|--------------------------------|-|--------------------------------|--------------------------------|-|-77--77-7-7--77-7-7--77-7-7--77-|-55--55-5-5--55-5-5--55-5-5--55-|-|-55--55-5-5--55-5-5--55-5-5--55-|-33--33-3-3--33-3-3--33-3-3--33-|-|-**--**-*-*--**-*-*--**-*-*--**-|-**--**-*-*--**-*-*--**-*-*--**-|
Gtr 1-|--------------------------------------|-----------------|-|--------------------------------------|-----------------|-|-1010-10101010-10101010-10101010-1010-|-9--------999999-|-|--------------------------------------|-----------------|-|--8-8--8-8-8-8--8-8-8-8--8-8-8-8--8-8-|-7-777777-777777-|-|--------------------------------------|---******--------|
Gtr 2-|-----------------------------|--------------|-|-----------------------------|--------------|-|-----------------------------|--------------|-|-77--77-7-7--7-77--77-7-7--7-|-555555555555-|-|-55--55-5-5--5-55--55-5-5--5-|-333333333333-|-|-**--**-*-*--*-**--**-*-*--*-|-************-|
Chorus 4 Gtr 1-|-----5---8-5---5-------------------------------------------------------8----|-|-------6-----8----------------------------------------------------8------10-|-|---5---------------------10----9-10--1010------10----9-10-----------10------|-|-7------------------10------10------------1010----10---------10-------------|-|-----------------88----8----------------------------------88----8-----------|-|-----------------**----*----------------------------------**----*-----------|
-|-----5---8-5---5------------------------------------------------------------|-|-------6-----8--------------------------------------------------------------|-|---5---------------------1010-9-10--1010------10----9-10--------------------|-|-7------------------10-------------------1010----10----------10---12---10---|-|-----------------88----8----------------------------------88----8----8----8-|-|-----------------**----*----------------------------------**----*-----------|
Gtr 2 (Chorus 1)
Post Chorus 2 Gtr 1-|--------------------x4-|--------------------x3-|-|-----------------------|-----------------------|-|----1010----1010----10-|----1010----1010----10-|-|----1010----1010----10-|----1010----1010----10-|-|-88------88------88----|-88------88------88----|-|-**------**------**----|-**------**------**----|
Gtr 2 (Do Post Chorus 1, without extra bit)
Outro Both Gtrs-|--------------------|-|--------------------|-|--------------------|-|-10-9-----------0---|-|--8-7-10-8-7-3--0-r-|-|------10-8-7-3--0---|
Please rate this tab:
x1.0