Running Wild - Return Of The Dragon tab

                                                     return of the dragon

                                                                 [ tabs ]

 Return Of The Dragon
 from "The Rivalry"


 Transcription by Marc Arnold, Germany

 Contact: marnold3@ix.urz.uni-heidelberg.de

 For right rhythm, please listen the song.

 /: slide up
 \: slide up
 u: bend up
 r: release bend
 h: hammer on
 p: pull off
 *: repeat


 Riff 1:

----------------------------------------------- ----------------------------------------------- ----------------------------------------------- --5/7-7-7\5-5-5/7-7-7--------7-5---5-5h7p5----- --3/5-5-5\3-3-3/5-5-5----5-8-----8---------8-5- -----------------------------------------------
---------------------------------------------------- ---------------------------------------------------- ---------------------------------------------------- --5/7-7-7\5-5-5/10-10-10------7-10-7----10p8p7------ --3/5-5-5\3-3-3/-8--8--8----8--------10--------10-8- ---------------------------------------------------- ??????????????????????? Riff 2:
------------------------ ------------------------ ------------------------ --5/7-7-7\5-5-5/7-7-7--- --3/5-5-5\3-3-3/5-5-5--- ------------------------
------------------------------ ------------------------------ ------------------------------ --5/7-7-7\5-5-5/10-10-10----5- --3/5-5-5\3-3-3/-8--8--8----3- ------------------------------
Riff 3:
------------------------------------------ ------------------------------------------ ------------------------------------------ --7---3---5---7---3-------5---5-3-0------- --5---1---3---5---1---3---3---------3-5-5- ----------------------1-------------------
Riff 4:
--------------------------------------------------------- --------------------------------------------------------- --------------------------------------------------------- --*-5/7-7-7\5-5-5/7-7-7/10-10-10/12-12-12\10-10-10\5-5-5- --*-3/5-5-5\3-3-3/5-5-5/-8--8--8/10-10-10\-8--8--8\3-3-3- ---------------------------------------------------------
------------------------------------------ ------------------------------------------ ------------------------------------------ --5/7-7-7\5-5-5/7-7-7/10-10-10/3-3-3-5-*-- --3/5-5-5\3-3-3/5-5-5/-8--8--8/1-1-1-3-*-- ------------------------------------------
-------------------------------------------------------- -------------------------------------------------------- -------------------------------------------------------- --7/9-9-9\7-7-7/9-9-9/12-12-12/14-14-14\12-12-12\7-7-7-- --5/7-7-7\5-5-5/7-7-7/10-10-10/12-12-12\10-10-10\5-5-5-- --------------------------------------------------------
--------------------------------------------------- --------------------------------------------------- --------------------------------------------------- --7/9-9-9\7-7-7/9-9-9-----7-5---5------------------ --5/7-7-7\5-5-5/7-7-7---5-----7---7-5-7-5---5------ ------------------------------------------8---8-5--
Solo: I think there are some mistakes
3:23 3:27 ------------------------------------------------------------------ --------------------------------------------------5-6-----8br-6-8- --7br-5---------------------------------------5-7-----7-5--------- --------7-----5---5-----------------------5-7--------------------- ----------------8---8-5-------------5-7-8------------------------- ------------------------8-----5-6-8-------------------------------
That` s wrong, but he plays something like this. 3:31 ----------------------------------------------------------------------------- -----15-17br-15-------------------------------------------------------------- --17------------17-14-17-17b-17-14------------14----------------------------- -----------------------------------17---15-17----17-15----------------------- -------------------------------------------------------17-15----17-15-------- -------------------------------------------------------------17-------17-15--
3:39 --20-20p17p15----20-20p17p15----20-17----15-------15-17-15----20-15---- --------------18-------------18-------18-------18----------18-------18- ----------------------------------------------------------------------- ----------------------------------------------------------------------- ----------------------------------------------------------------------- -----------------------------------------------------------------------
3:47 3:51 --20-15----15---------------------------------18-20-18-15-17-15-- --------18-------15-------15-13---------------------------------- --------------17----17-14-------14------------------------------- -----------------------------------15---------------------------- --------------------------------------------5-------------------- --------------------------------------5-6-8----------------------
3:55 -----15----------------------------/------------------------------------------/ --18----18-15----------------------/------------------------------------------/ --------------14-12----12-------17-/*----------------------------------------*/ --------------------15----15-12----/*---3-3-3-3-----3-5-----3-3-3-3--5-3-----*/ -----------------------------------/--5-----------5-------5--------------5-3--/ -----------------------------------/------------------------------------------/
4:03 ------------------------------------------------------------------------------- ----------------------------------------------6-----8-------------------------- ----2-2-2-2-----2-5-5-5-5-----2-7-7-7-7---5-7---7-5---5------------------------ --3-----------3-------------3---------------------------7-5-5-5-5---5-7--7-5-7- ------------------------------------------------------------------7------------ -------------------------------------------------------------------------------
4:10 -/--------------------------------------------------------/--------- -/--6-8p6p5p-------------------6-8p6p5--------------------/--------- -/*----------7-5---5-7-5---5-----------7-5---5-7-5-7-----*/--------- -/*----------------------7---------------------------7-5-*/-5h7p5--- -/--------------------------------------------------------/-------8- -/--------------------------------------------------------/---------
4:26 4:34 -/-------------------------------------------/------------------------ -/-------------------------------------------/------------------------ -/*-----------------------------------------*/---2-2-2-2----2-5-5-5-5- -/*---3-3-3-3-----3-5-----3-3-3-3---5-3-----*/-3----------3----------- -/--5-----------5-------5---------------5-3--/------------------------ -/-------------------------------------------/------------------------
------------------------------------------------------ --------------------6-----8--------------------------- ----2-7-7-7-7---5-7---7-5---5------------------------- --3---------------------------7-5-5-5-5---5-7---7-5-7- ----------------------------------------7------------- ------------------------------------------------------
4:42 ------------------------------------------------ -------------------1---1h3p1p0------------------ ----------------2b-------------2-----2---------- ------3---3-5-3------------------5-----5p3p2p--- --3-5-----------------------------------------5- ------------------------------------------------
4:50 4:57 -----------------------------3--5-5p3-?-------3-5---3-5-3h5p3h5p3----- -------------------1---1-3-1--------------6-6---------------------3-6- ----------------2b---------------------------------------------------- ------3---3-5-3------------------------------------------------------- --3-5----------------------------------------------------------------- ----------------------------------------------------------------------
------3-6---6-6---3-----------------5b-8---8-10-8-10-------------------- --6-6-----------6-------3-6---6-6-3------------------10-8---8-11p10p8-6- ----------------------5------------------------------------------------- ------------------------------------------------------------------------ ------------------------------------------------------------------------ ------------------------------------------------------------------------
Playlist: 2 x Riff 1 (0:53) 2 x Riff 2 (1:08) 2 x Riff 1 (1:24) 2 x Riff 2 (1:40) 2 x Riff 3 (1:56) 2 x Riff 1 (2:12) 2 x Riff 2 (2:28) 2 x Riff 3 (2:44) 1 x Riff 4 (2:59) Solo (3:23) 2 x Riff 1 (5:14) 2 x Riff 2 (5:30) 2 x Riff 3 (5:46) 4 x Riff 1 (6:10)
Tap to rate this tab
 
# A B C D E F G H I J K L M N O P Q R S T U V W X Y Z