Running Wild – The Rivalry tab

                                                              the rivalry

                                                                 [ tabs ]

 THE RIVALRY - RUNNING WILD
 --------------------------

 Music & Lyrics: Rock´n´Rolf

  Intro:

|---------------------------------------| |------------------------------10-------| |----11----11----11----11-9-12----9-11--| |--9-----9-----9-----9------------------| |---------------------------------------| |---------------------------------------|
|---------------------------------------| |---------------------------------------| |----11----11----11----11-9----9--------| |--9-----9-----9-----9------12---11-----| |-----------------------------------12--| |---------------------------------------|
|---------------------------------------| |------------------------------10-------| |----11----11----11----11-9-12----9-11--| |--9-----9-----9-----9------------------| |---------------------------------------| |---------------------------------------|
|-----------------------------------------| |-----10-----10---------------------------| |-------------------11--9-9---------------| |--12-----12-----12----------11-12-11-----| |-------------------------------------13--| |-----------------------------------------|
|-------------------------------------------------------------------------| |-------------------------------------------------------------------------| |-------------------------------------------------------------------------| |-------------------------------------------------------------------------| |-22222222222222222222-55555-222-000-2222222222222222222222-55555-222-000-| |-------------------------------------------------------------------------|
|-------------------------------------------------------------------------| |-------------------------------------------------------------------------| |-------------------------------------------------------------------------| |-00000000000000000000-44444-222-000-2222222222222222222222-44444-222-000-| |-------------------------------------------------------------------------| |-------------------------------------------------------------------------|
both twice... Bridge:
|-------------------------| |-------------------------| |-------------------------| |-7-------7---------------| x2 |-5-555-5-5-7-5-4-5-555-7-| |-----------------------5-|
|---------------------------------------------------| |---------------------------------------------------| |---------------------------------------------------| |-4--2--4--44444-222-000----4--2--4-----------------| x2 |-2--0--2-------------------2--0--2--55555-444-000--| |---------------------------------------------------|
Chorus:
|--------------------------------------------------| |--------------------------------------------------| |--------------------------------------------------| |-7-----4----7-----4----7-----4--------7--------4--| x2 |-5--7--2----5--7--2----5--7--2--5--7--5--5--7--2--| |----5----------5----------5-----3--5-----3--5-----|
|--------------------------------------------------| |--------------------------------------------------| |--------------------------------------------------| |-4-------4-------------------------5-4-0-2-222-0--| x2 |-2-222-2-2-5-2-0-2-222-0-2-222-2-2----------------| |--------------------------------------------------|
Intro... SOLO I (no tab) Second guitar during solo I:
|----------------------------------------------------------| |----------------------------------------------------------| |----------------------------------------------------------| |----------------------------------------------------------| |-55555555555555555555-777-000-22222222222222222222-00000--| |----------------------------------------------------------|
|--------------------------------------------------------------| |--------------------------------------------------------------| |--------------------------------------------------------------| |--------------------------------------------------------------| |-55555555555555555555-777-999-555-22222222222222222222-00000--| |--------------------------------------------------------------|
both twice... SOLO II:
|------------------------------------------------------------------| |-------7-8-7-------7---------7-8-7-------------7-8-7-------7-10~--| |-7~--9-------9-7-9-------7-9-------9-7-9-7~--9-------9-7-9--------| |---------------------9~-------------------------------------------| |------------------------------------------------------------------| |------------------------------------------------------------------|
|-7-------------------| |----10-8-7-----------| |-----------9-7-------| |---------------9-7~--| |---------------------| |---------------------|
both twice...
|--------------------------------------| |-------------------------------8-7----| |-4--------7--------4--------7------9--| |-4--5--7--7--5--7--2--5--7--7---------| x2 |-2--5--7--5--5--7--2--5--7--5---------| |----3--5-----3--5-----3--5------------|
Intro... Bridge... Chorus... Intro... Tapped by: Matias Palm palma@lyseolukio2.kajaani.fi
Please rate this tab:
x1.0