Rush - Red Barchetta tab

This is the live version of red barchetta from "Exit...Stage Left" so I don't know if it 
different from the studio version or not.

Standard tuning (E A D G B E)

h-hammer
b-bend
s-slide
p-pull off
~-vibrato

Intro (play in harmonics)|----------------|-------------------||----------------|-------------------||-----12------14-|-----12-----14-14--||----------------|-------------------|X4|-12------12-----|-12------12--------||----------------|-------------------|
|----|---------15-----|--------15---15-14--||----|-14--15---------|-14--15-------------||-14-|-------------14-|--------------------||----|----------------|--------------------|repeat last 2 bars 3X|----|----------------|--------------------||----|----------------|--------------------|
Verse|--------------------------|--------------------------||-------3--3---2---3--2--0-|-------3--3---2---3--2--0-||-----2------2---2---------|-----2------2---2---------||---2----------------------|---4----------------------||-0------------------------|-4------------------------||--------------------------|-2------------------------|
|-------------------------|-------0--0--------------------||------3--3---2---3--2--0-|-----3------2-2-2h5--3--2-5p3--||----2------2---2---------|---2---------------------------||--0----------------------|-0-----------------------------|X3|-------------------------|-------------------------------||-3-----------------------|-------------------------------|
Instrumental fill part|-----|----1-------1---||-----|----1-------1---||-----|----------------||-----|----------------|play last measure 3 times then play...|-3-2-|----------------||-----|-1----0--0----0-|
|--------------||--------------||-12s14--14-14-||-12s14--16-14-|then play the whole section once more|--------------||--------------|
Chorus part A|----|----------------|------------------||----|----------3-----|----------3--3----||----|-2-2------2-----|-2-2------2--2----||----|-2-2------0-----|-2-2------0--0----|repeat 2nd bar then play...|----|-0-0------------|-0-0--------------||-3b-|------3b-----3b-|------3b-------3b-|
|--------------||-12s14--14-14-||-12s14--16-14-|then repeat whole section twice|--------------||--------------|
Chorus part B|----------------| |---------------||----------------| |---------------||-2---2----------| |------------2--||-2---2-5---5-5--|x3 |------------2--||-0---0-5---5-5--| |----0--2b---0--||-------3---3-3--| |-3-------------|
|----------------| |-------------------|----------------|-----------------||----------------| |---2----2----2-----|----------------|-----------------||-2---2----------| |---2----2----2-----|-----12------14-|----12------14-14||-2---2-5---5-5--|x2|---2----2----2-----|----------------|-----------------||-0---0-5---5-5--| |---0----0----0-----|-12------12-----|12------12-------||-------3---3-3--| |-------------------|----------------|-----------------|Play verse
|----------------||----------------||----------------||--(scratching)--||----------------||----------------|
Bridge|-------------|---------------|-------------|---------||-------------|---------------|-------------|---------||-------------|---------------|-------------|---------||-5-0-0-0-0-5-|-7-0-0-0-0-0-7-|-5-0-0-0-0-5-|-7--7--7-|X5|-2---------2-|-4-----------4-|-2---------2-|-4--5--4-||-------------|---------------|-------------|---------|
|--------------|--------------|-------------|-------------||--------------|--------------|-------------|-------------||--------------|--------------|-------------|-------------||-3--3-3--3-3--|-3--3-3--3-3--|-6--6-6--6-6-|-6--6-6--6-6-|X2|-1--1-0--0-0--|-1--1-0--0-0--|-4--4-3--3-3-|-4--4-3--3-3-||--------------|--------------|-------------|-------------|
|--------------|--------------|--------------------|-----------------||--------------|--------------|--------------------|-----------------||--------------|--------------|--------------------|-----------------||-9--9-9--9-9--|-9--9-9--9-9--|-12--12-12--12-12-12|12-12-12-12-14---||-7--7-6--6-6--|-7--7-6--6-6--|-10--10-9---9--9--9-|9--9--10-10-12---||--------------|--------------|--------------------|-----------------|
Guitar Solo (It is something like this)|-------9--7---------------------|----------------------------------||-------------10--7--------------|----------------------------------||--------------------9--7--6-----|-------------------------------4h6||-(Car)-----------------------9--|7------------------------4-6h7----||--------------------------------|-------------------4h5-7----------||--------------------------------|5----5-5-7-7-5-5-7----------------|
|-----------------------------------|-------------------------||-5--7--5--7-7b8---7p5h7p5h7--------|-------------------------||---------------------------6h7p6h7p|7s9~~~7b9--7--6----------||-----------------------------------|-----------------7-------||-----------------------------------|--------------------7--0-||-----------------------------------|-------------------------|
|----------------------|-----------------------------||------5~~~~-----5~~-5-|-7---7-7---7-7-7-7-----------||----6---------6-------|-------------------6-7---7---||-7---------7----------|-----------------------7---7-||----------------------|-----------------------------||----------------------|-----------------------------|
|---------------------------------|------7s10-10-------10h12--10--9-9h10p9-||---------10--------10--------10--|-----------------10---------------------||-------7---------7---------7-----|----------------------------------------||-7s9--------7s9-------7s9--------|-0--------------------------------------||---------------------------------|----------------------------------------||---------------------------------|----------------------------------------|
|----------------|----------------||----------3-----|----------3--3--||-2-2------2-----|-2-2------2--2--|X4|-2-2------0-----|-2-2------0--0--|4th time just play the first bar|-0-0------------|-0-0------------|then play...|------3b-----3b-|------3b--------|
|------------||-12s14--14--||-12s14--16--||------------||------------|
Play verse again Play Instrumental Fill Part Again Play Chorus parts A and B again
Outro|----------------| |-------------------|------------||----------------| |---2----2----2-----|------------||-2---2----------| |---2----2----2-----|------------||-2---2-5---5-5--|x2 |---2----2----2-----|------------||-0---0-5---5-5--| |---0----0----0-----|------------||-------3---3-3--| |-------------------|------------|
|----------------|-------------------||----------------|-------------------||-----12------14-|-----12-----14-14--||----------------|-------------------|X6|-12------12-----|-12------12--------||----------------|-------------------|
|----|---------15-----|--------15---15-14--||----|-14--15---------|-14--15-------------||-14-|-------------14-|--------------------||----|----------------|--------------------|repeat last 2 bars 3X|----|----------------|--------------------||----|----------------|--------------------|
|-----------------------------||-----------------------------||-0-0-----2-------------------||---------------------5---4s2-|X4|------0-----0--4s5s4---------||-----------------------------|
|--------------------------||--------------------------||-0-----2------------------||-----------------5--5-4s2-|X4 last time don't slide|----0-----0--4s5----------||--------------------------|
|------14-----------|--------------||-15----------------|---14s15------||-----------14------|--------------||-------------------|--------------||-------------------|--------------||-------------------|--------------|
Tap to rate this tab
 
# A B C D E F G H I J K L M N O P Q R S T U V W X Y Z