Rush - Wheres My Thing tab

#----------------------------------PLEASE NOTE---------------------------------#
#This file is the author's own work and represents their interpretation of the #
#song. You may only use this file for private study, scholarship, or research. #
#------------------------------------------------------------------------------##
From: cpezzone@magnus.acs.ohio-state.edu (Carmen J Pezzone)

		Where's My Thing?
               by Rush, from Roll The Bones


     I have all the part tabbed here. You'll need to listen to the
song to know what order, and where to stick, and repeat the parts. Good luck


play 5 times:

riff A-------------------------------------------------------------------|---7---x--5--x--5--x--5--7--7--x--x--7--7--x--x--7--7--x--5--x--5--|---5---x--4--x--4--x--4--5--5--x--x--5--5--x--x--5--5--x--4--x--4--|---7---x--5--x--5--x--5--7--7--x--x--7--7--x--x--7--7--x--5--x--5--|-------------------------------------------------------------------|-------------------------------------------------------------------|
play 5 times:
riff A, with; Riff B --------------| --------------| --------------| --------------| --------------| --0--1--2--3--|
times 2,3, and 4, also add,
--14--14--14--14--14--14--14--| --13--13--13--13--13--13--13--| --14--14--14--14--14--14--14--| ------------------------------| ------------------------------| ------------------------------|
---------------------------------------------------------------|--------------------------15----------12vvvvvvvvvvvvvvvvvvvv---|----------------------12---------------------------------------|------------------12-------------------------------------------|---------------------------------------------------------------|---------------------------------------------------------------|
--------------------------------------------|------------15---13----12-------------------|-------12--------------------14-------------|---12---------------------------------------|--------------------------------------------|--------------------------------------------|
-------------------------------------------------------------|--------------------------15---------12vvvvvvvvvvvvvvvvvvv---|----------------------12-------------------------------------|------------------12-----------------------------------------|-------------------------------------------------------------|-------------------------------------------------------------|
------------12---------------------------15--15--15--|-----------------13----12----------------15--15--15--|-------12--------------------14----------------------|---12------------------------------------------------|-----------------------------------------------------|-----------------------------------------------------|
Riff C --------------------------| --------------------------| -----0-----0-----0-----0--| --5-----4-----2-----4-----| --------------------------| --------------------------|
play; Riff A Riff B Riff A Riff C Riff A Riff B Riff A Riff C
-----------------------------------------------------------------------------|-----------------------------------------------------------------------------|-----------------------------------------------------------------------------|-----------------------------------------------------------------------------|---------------------7---------------------------5---------------------7-----|--3--5vvvv--0--3--5-----0--3--5vvvv--0--3--5--7-----3--5vvvv--0--3--5-----0--|
-----------------------------------------------------------------------------|-----------------------------------------------------------------------------|-----------------------------------------------------------------------------|-----------------------------------------------------------------------------|---------------------------5------------------------7------------------------|--3--5vvvv--0--3--5--5--7-----0--3--5vvvv--0--3--5-----0--3--5vvvv--0--3--5--|
--------|--------|--------|--------|-----5--|--7-----|
solo;
v-- w/ bar v-- p.h.---------------------------------------------|---------------------------------------------|--2vvvvvvvvvvvv\(-1)/vvvvvvvvvv--2-----2\----|---------------------------------------------|---------------------------------------------|---------------------------------------------|
------------------------------------------------------------------------|------------------------------------------------12------15--15--12------|--12\/---14---12--12------------------12------------14--------------14--|----------------------14--14vvvvvvvv------------------------------------|------------------------------------------------------------------------|------------------------------------------------------------------------|
----------------------------------------------------------------------------|----------------------------------------------------------------------------|----------------------------------------------------------------------------|----------------------------------------------------------------------------|--5--5--3--5---5--3>(3.5)--------------------------5--5--3--5---5--3>(3.5)--|---------------------------5--3>(3.5)--5--3>(3.5)---------------------------|
---------------------------------------------------------------------------|---------------------------------------------------------------------------|---------------------------------------------------------------------------|---------------------------------------------------------------------------|--------------5--5--3--5---5--3>(3.5)--------------------------5--5--3--5--|--0--1--2--3---------------------------5--3>(3.5)--5--3>(3.5)--------------|
--------------------------------------------------------------------|--------------------------------------------------------------------|--------------------------------------------------------------------|--------------------------------------------------------------------|---5--3>(3.5)-----5--5--3--5---5--3>(3.5)---------------------------|--------------------------------------------5--3>(3.5)--5--3>(3.5)--|
----------------------------------------------------------------|----------------------------------------------------------------|----------------------------------------------------------------|----------------------------------------------------------------|--5--5--3--5---5--3>(3.5)--------------5--5--3--5---5--3>(3.5)--|---------------------------0--1--2--3---------------------------|
--------------------------|--------------------------|--------------------------|--------------------------|--------------------------|--5--3>(3.5)--5--3>(3.5)--|
play 2 times--------------------------------------------------------------------|----------------------------------------------------------14--------------------|-------------------17-----14vvvvvvvvvv--------------------------15----14--------|-------------14-------------------------------------14----------------------16--|-------14-------------------------------------14--------------------------------|--------------------------------------------------------------------------------|--------------------------------------------------------------------------------|
jamesb@nevada.edu
Tap to rate this tab
 
# A B C D E F G H I J K L M N O P Q R S T U V W X Y Z