Russian Circles - Harper Lewis tab

I recently learned the tapping solo in this song by ear with the current tabs
as a guide.  While they are probably 90% correct, I figured I would just tab
out the parts I could hear that are different in the studio version.

Tuning: Db Ab Db Gb Ab Db

Notes:
-The three notes in the right hand pattern (two taps and a pulloff) all
 have equal lengths.
-The slide from the 5th fret chord to the 8th fret takes no time and may or
 may not be actually strummed.  For all the other slides, you should strum
 the beginning octave up to a full note before the beat and slide it so that
 it arrives with the beat.

Intro version, play once

|---------------t12------t12--------t12------t12---------| |--------------------------------------------------------| |--------------------------------------------------------| |-0h5----t12p5-----t12p5------t12p5----t12p5----t12p5----| |-x------------------------------------------------------| |-5------------------------------------------------------|
|---------t12------t12---------------t13------t15--------| |--------------------------------------------------------| |--------------------------------------------------------| |-5 / 8------t12p8----t12p8---8-/ 10----t13p10---t15p10--| |-x-/-x-----------------------x-/-x ---------------------| |-5-/-8-----------------------8-/-10---------------------|
|---------t12-------t12------t12--------t13------t12------| |---------------------------------------------------------| |---------------------------------------------------------| |-10-\-5-----t12p5-----t12p5----t12p5------t13p5----t12p5-| |-x -\-x--------------------------------------------------| |-10-\-5--------------------------------------------------|
|---------t10------t10---------------t8------t10----------| |---------------------------------------------------------| |---------------------------------------------------------| |-5 / 8------t10p8----t10p8---8-/ 3----t8p3-----t10p3-----| |-x-/-x-----------------------x-/-x-----------------------| |-5-/-8-----------------------8-/-3-----------------------|
Main Riff, repeat 3 times
|-----t12-------t12------t12--------t10------t12--------| |-------------------------------------------------------| |-------------------------------------------------------| |-\-5----t12p5-----t12p5----t12p5------t10p5----t12p5---| |-\-x---------------------------------------------------| |-\-5---------------------------------------------------|
|---------t12------t12---------------t13------t15---------| |---------------------------------------------------------| |---------------------------------------------------------| |-5 / 8------t12p8----t12p8---8-/ 10----t13p10---t15p10---| |-x-/-x-----------------------x-/-x ----------------------| |-5-/-8-----------------------8-/-10----------------------|
|---------t12-------t12------t12--------t13------t12------| |---------------------------------------------------------| |---------------------------------------------------------| |-10-\-5-----t12p5-----t12p5----t12p5------t13p5----t12p5-| |-x -\-x--------------------------------------------------| |-10-\-5--------------------------------------------------|
|---------t10------t10---------------t8------t10----------| |---------------------------------------------------------| |---------------------------------------------------------| |-5 / 8------t10p8----t10p8---8-/ 3----t8p3-----t10p3-----| |-x-/-x-----------------------x-/-x-----------------------| |-5-/-8-----------------------8-/-3-----------------------|
Tap to rate this tab
 
# A B C D E F G H I J K L M N O P Q R S T U V W X Y Z