Saints - Messin With The Kid tab

Artist: The Saints
Song: Messin With The Kid

tabbed by shanE
email - random.hero___@hotmail.com

the tuning is strange. i was figuring this tab out when my guitar wasn't in tune. the 
is between E (standard) and D# (half step down). Just tune it down a little and it will 
right.

Intro/Verse

|-----6---6------6---6----4-4-4--||-----8h9-8------6h8-6----4-4-4--||-----8---8------7---7----5-5-5--||---8-8---8------8---8----6-6-6--||-6---6---6----8-8---8--6-6-6-6--||------------6---6---6-4--4-4-4--|
Riff
|------------------------||------------------------||------------------------||---------------1--------||--3--1----1-3-----------||--------4---------------|
Chorus
|--4-4-4-4-4-4--6-6-6-6-6---||--6-6-6-4-4-4--8-8-9-9-8---||--6-6-6-5-5-5--8-8-8-8-8---||--6-6-6-6-6-6--8-8-8-8-8---||--4-4-4-6-6-6--6-6-6-6-6---||--------4-4-4--------------|
Post-Chorus
|--4-4-4-4-4-4-4-4--||--6-6-6-4-4-4-4-4--||--6-6-6-5-5-5-6-5--||--6-6-6-6-6-6-4-6--||--4-4-4-6-6-6-6-6--||--------4-4-4-4-4--|
Bridge
|-3-3-3-3--4-4-4--6-6-6------------||-3-3-3-3--4-4-4--6-6-6------------||-3-3-3-3--5-5-5--7-7-7------------||-5-5-5-5--6-6-6--8-8-8------------||-5-5-5-5--6-6-6--8-8-8------------||-3-3-3-3--4-4-4--6-6-6------------|
then
|-3-3-3-3--4-4-4--6-6-6-6-6-6----||-3-3-3-3--4-4-4--8-8-8-6-6-6----||-3-3-3-3--5-5-5--8-8-8-7-7-7----||-5-5-5-5--6-6-6--8-8-8-8-8-8----||-5-5-5-5--6-6-6--6-6-6-8-8-8----||-3-3-3-3--4-4-4--------6-6-6----|
Outro
|-6-6-6-6-6-6-6-6-6-4-4-4-4--4-4-4-4-||-8-8-9-9-8-8-8-9-8-6-6-6-6--4-4-4-4-||-8-8-8-8-8-8-8-8-8-6-6-6-6--5-5-6-5-||-8-8-8-8-8-8-8-8-8-6-6-6-6--6-6-4-6-||-6-6-6-6-6-6-6-6-6-4-4-4-4--6-6-6-6-||----------------------------4-4-4-4-|
Outro Riff
|--------------------------------------||--------------------------------------||--------------------------------------||---------------1---------------1-1-1-1||-4-3-1---1-3-4---4-3-1---1-3-4--------||-------4---------------4--------------|
Tap to rate this tab
 
# A B C D E F G H I J K L M N O P Q R S T U V W X Y Z