Samael - Oriental Dawn tab

~~ vibrato
b - bend
ah/nh - harmonics
ps - pick slide
t - tremolo
/ - slide
h - hammer on
p - pull of

Tuning D A F C G D (1 tone down)

Riff 1 x3

|---------------||---------------||-------7~7-9-7-||-4-6-7---------||---------------||---------------|
Riff 2 x1
|-------------------------||-------------------------||-6-7-6-7-6h7p6h7p6h7p6---||-----------------------7-||-------------------------||-------------------------|
Riff 1 x3
|-----------------||-----------------||-------7~7-9-7---||-4-6-7-----------||-----------------||-----------------|
Riff 3 x1
|-----------------------------------||-----------------------------------||-6-7-7-7-6-7-7-7-6-7-7-7-6-7-7-7---||---------------------------------7-||-----------------------------------||-----------------------------------|
Riff 1 x3
|---------------||---------------||-------7~7-9-7-||-4-6-7---------||---------------||---------------|
Riff 2 x1
|-------------------------||-------------------------||-6-7-6-7-6h7p6h7p6h7p6---||-----------------------7-||-------------------------||-------------------------|
Riff 1 x3
|-----------------||-----------------||-------7~7-9-7---||-4-6-7-----------||-----------------||-----------------|
Riff 3 x1
|-----------------------------------||-----------------------------------||-6-7-7-7-6-7-7-7-6-7-7-7-6-7-7-7---||---------------------------------7-||-----------------------------------||-----------------------------------|
riff 4 5x ah|-------------------------------||-------------------------------||-------------------------------||-4-4-4-4-4-4-4-4-4-4-3/4/3/4/3~||-4-4-4-4-4---4-4-4-4-3/4/3/4/3~||-2-2-2-2-2---2-2-2-2-1/2/1/2/1~|
Riff 1 x3
|-----------------||-----------------||-------7~7-9-7---||-4-6-7-----------||-----------------||-----------------|
Riff 2 x1
|-------------------------||-------------------------||-6-7-6-7-6h7p6h7p6h7p6---||-----------------------7-||-------------------------||-------------------------|
Riff 1 x3
|-----------------||-----------------||-------7~7-9-7---||-4-6-7-----------||-----------------||-----------------|
Riff 3 x1
|-----------------------------------||-----------------------------------||-6-7-7-7-6-7-7-7-6-7-7-7-6-7-7-7---||---------------------------------7-||-----------------------------------||-----------------------------------|
Riff 4 /guitar I/ 2x
ah|-------------------------------||-------------------------------||-------------------------------||-4-4-4-4-4-4-4-4-4-4-3/4/3/4/3~||-4-4-4-4-4---4-4-4-4-3/4/3/4/3~||-2-2-2-2-2---2-2-2-2-1/2/1/2/1~|
Riff 4 /guitar II/ 2x
|---------------------------------||---------------------------------||---------------------------------||-4444444444444444444444443333333-||---------------------------------||---------------------------------|
Riff 4 3x
ah|-------------------------------||-------------------------------||-------------------------------||-4-4-4-4-4-4-4-4-4-4-3/4/3/4/3~||-4-4-4-4-4---4-4-4-4-3/4/3/4/3~||-2-2-2-2-2---2-2-2-2-1/2/1/2/1~|
Riff 5 1x
|---------------------------------------||---------------------------777-6-------||----------6666666644466677-------7-6---||-44466677------------------------------||---------------------------------------||---------------------------------------|
Riff 1 x3
|-----------------||-----------------||-------7~7-9-7---||-4-6-7-----------||-----------------||-----------------|
Riff 2 x1
|-------------------------||-------------------------||-6-7-6-7-6h7p6h7p6h7p6---||-----------------------7-||-------------------------||-------------------------|
Riff 1 x3
|-----------------||-----------------||-------7~7-9-7---||-4-6-7-----------||-----------------||-----------------|
Riff 3 x1
|-----------------------------------||-----------------------------------||-6-7-7-7-6-7-7-7-6-7-7-7-6-7-7-7---||---------------------------------7-||-----------------------------------||-----------------------------------|
Riff 6
nh ah nh ah nh|----------------------------------| |----------------------------------||----------------------------------||-3b-3-4-4-4-4-3-3-4-4-4-4-4-4-3-3-||----3-4---4-4-3---4-4-4---4-4-3---||----1-2---2-2-1---2-2-2---2-2-1---|
RIff 7 3x /palm muted/
|-------------------------------------| |-------------------------------------||-4-4-4-4-6-6-7-7-7-7-----------------||---------------------5-5-5-5-5-5-7-5-| |-------------------------------------||-------------------------------------|
Riff 3 x1
|-----------------------------------||-----------------------------------||-6-7-7-7-6-7-7-7-6-7-7-7-6-7-7-7---||---------------------------------7-||-----------------------------------||-----------------------------------|
RIff 7 3x /palm muted/
|-------------------------------------| |-------------------------------------||-4-4-4-4-6-6-7-7-7-7-----------------||---------------------5-5-5-5-5-5-7-5-| |-------------------------------------||-------------------------------------|
Riff 3 x1
|-----------------------------------||-----------------------------------||-6-7-7-7-6-7-7-7-6-7-7-7-6-7-7-7---||---------------------------------7-||-----------------------------------||-----------------------------------|
riff 8 x1
|---------------------------------------------------------------------------------------------||---------------------------------------------------------------------5---------------5-------||-6-6-6-7-6-4-6-7-6-4-6-7-6-4-6-6-6-7-6-4-6-7-6-4-6-7-6-4-6-7-6-7-4-7---7-6-7-6-7-4-7---7-6---||---------------------------------------------------------------------------------------------||-------------------------------------------------------------------------------------------p-||-------------------------------------------------------------------------------------------s-|
Riff 1 x3
|-----------------||-----------------||-------7~7-9-7---||-4-6-7-----------||-----------------||-----------------|
Riff 3 x1
|-----------------------------------||-----------------------------------||-6-7-7-7-6-7-7-7-6-7-7-7-6-7-7-7---||---------------------------------7-||-----------------------------------||-----------------------------------|
Riff 1 x3
|-----------------||-----------------||-------7~7-9-7---||-4-6-7-----------||-----------------||-----------------|
Riff 3 x1 nh|---------------------------------------||---------------------------------------||-6-7-7-7-6-7-7-7-6-7-7-7-6-7-7-7-------||---------------------------------7-4-4-||-------------------------------------4-||-------------------------------------2-|
Tap to rate this tab
 
# A B C D E F G H I J K L M N O P Q R S T U V W X Y Z