Santana - Corazon Espinado tab

I just fixed some stuff from the tabs from jordanlockert@yahoo.com
i just wanted better tabs man.


-|----------------------------7-6-----------------------------|-|--------------------------7------7--------------------------|-|-----4h7p4---4---------/7----------9--7-9^9^--------9-6-7-9-|-|-4h7-------7------------------------------------------------|-|------------------------------------------------------------|-|------------------------------------------------------------|
-|------7h10p7----7------------14-17^r--14-----------14------14----14--|-|-7h10--------10----------/17-------------17--15-17^----17^----17^----|-|---------------------------------------------------------------------|-|---------------------------------------------------------------------|-|---------------------------------------------------------------------|-|---------------------------------------------------------------------|
----------------------------------|--17-14-15-17---15-14-14----------|--------------------------16------|----------------------------------|----------------------------------|----------------------------------|..espinado el corazon-|--------------------------------|-|-10----------7------------------|-|-9^--9p7-9-7---7----------------|-|-----------------9--------------|-|--------------------------------|-|--------------------------------|
...no da razon-|-------------------|-|-------------------|-|-6-7-9---9p7p6-----|-|--------------9----|-|-------------------|-|-------------------|
...corazon aplastado-|-5-------------------------|-|---8-7-5---5----7p5h7------|-|---------7-----------------|-|---------------------------|-|---------------------------|-|---------------------------|
...Aber aber-|--------------|-|--------------|-|---4-6-7------|-|-4------------|-|--------------|-|--------------|
Chorus:...como me duele el amor-|-------------------------------------------------|-|-10^///////-10^///////-10^--10p7---7---7---------|-|---------------------------------9---9---9^------|-|-------------------------------------------------|-|-------------------------------------------------|-|-------------------------------------------------|
...nostiene entregados-|--------------|-|--------------|-|-6-7-9--------|-|--------------|-|--------------|-|--------------| Hay ya yay como me duele el amor
-|------------------------------------------|-|---7-7-7------------7---7-----------------|-|-9^---------------9^--9^--7-9p7-----------|-|-------------------------------9----------|-|------------------------------------------|-|------------------------------------------|
Chorus:...como me duele el amor-|--------------------------------7-----------------------|-|-10^-----10--7--10-7h10p7---7-----10p7-----7------------|-|--------------------------9---9^-------9p7---7----------|-|-----------------------------------------------9--------|-|----this is the best I could figure this one out...-----|-|--------------------------------------------------------|
-|------------------------------------------------------|-|-----------------------17p15-17p15-17p15-17p15-17^----|-|-----7---6----7-6-------------------------------------|-|-9----------------9-9---------------------------------|-|------------------------------------------------------|-|------------------------------------------------------|
ah ah ah...-12----12-12------------------------------------------|----17^------15-17p15------15--14----15-14------------|-----------------------16------------------16-16----\-|------------------------------------------------------|------------------------------------------------------|------------------------------------------------------|
ah ah ah...-|-------------------------------2////////*-------|-|-------------------------------3////////*-------|-|------------------------------------------------|-|------------------------------------------------|-|-/9-9-9-----------------------------------------|-|------------------------------------------------|
*slide up while rapid picking-|----------------------------------------------------------|-|-12----------------------------14br-12-----12//////-------|-|---------14-11----11-11----------------14^----------14p11-|-|---------------14^----------------------------------------|-|----------------------------------------------------------|-|----------------------------------------------------------|
solo---------------------|---------------------|---------------------|-14^-14---12h14------|---------------------|---------------------|
-|----------------------------------------------------------14///////-|-|-12-15-15-12-15-12-15-15-12---14-17-17-14-17-14-17-17-14------------|-|--------------------------------------------------------------------|-|--------------------------------------------------------------------|-|--------------------------------------------------------------------|-|--------------------------------------------------------------------|
-14t15*----14-15-14-15-14-15-14-15-17-15-14-17^-|------------------------------------------------|------------------------------------------------|------------------------------------------------|------------------------------------------------|------------------------------------------------|
*trill about maybe 8 times. Listen to song to hear it.-|-17^-----17-14----14-14----|-|---------------17^---------|-|---------------------------|-|---------------------------|-|---------------------------|-|---------------------------|
-17^-17^-17^rp14--14-------------14--------------------------------|----------------17--17b-17p15h17---15-17--15p14--------------------|-----------------------------------------------16------------------|-------------------------------------------------------------------|-------------------------------------------------------------------|-------------------------------------------------------------------|-|-----------------------------------------------------------------|-|-15p14p12-15p14p12-15p14p12-15p14p12-15p14p12-15p14p12-15p14p12--|-|-----------------------------------------------------------------|-|-----------------------------------------------------------------|-|-----------------------------------------------------------------|-|-----------------------------------------------------------------|
-------------------------------------------------------|-17p15p14-17p15p14-17p15p14-17p15p14-17p15p14-17p15p14-|-------------------------------------------------------|-------------------------------------------------------|-------------------------------------------------------|-------------------------------------------------------|
-|-2////////////*--------------------------------------------|-|-3////////////*--------------------------------------------|-|-----------------------------------------------------------|-|-----------------------------------------------------------|-|-----------------------------------------------------------|-|-----------------------------------------------------------|*turbo pick and slide all the way up the fretboard ...el olvido
-|----------------------------------------|-|----------------------------------------|-|-14-12-11-----------11-11---------------|-|-----------14-12-14---------------------|-|----------------------------------------|-|----------------------------------------|
...el corazon-|---7-9---10-9-7--------------------------------------|-|-7----------------7----------------------------------|-|--------------------7--------------------------------|-|----------------------9-7----------------------------|-|-----------------------------------------------------|-|-----------------------------------------------------|..estar vivo-|-----------------------------------------------------|-|-----------------------------------------------------|-|----------------------11-12-12-11h12p11--------------|-|-----11-14-14-11---14-------------------14--12-------|-|-/12------------12-----------------------------------|-|-----------------------------------------------------|
...lado amor-|-----------------------------|-|-----------------------------|-|-----------------------------|-|-----------------------------|-|-/9-9-9-/9-9-9-/9-9-9--------|-|-----------------------------|
Corazon espinado-|---------------------------------------------------------7-------|-|-------------7-----------------------------------7---------------|-|-----7--9------7---------7--6----7-6--------/7-9---9---9^--9p7h9-|-|-9---------------9-7-9---------------7---9-----------------------|-|---------------------------------------9-------------------------|-|-----------------------------------------------------------------|
----------------7----7----7-7-7-7-7-|-7--------------7----7----7-7-7-7-7-|--7--------7-9^---9^---9^-----------|---9p7h9----------------------------|------------------------------------|------------------------------------|
-|---------------------12-----------------------------------------|-|-17^------17-15-17^-----17^--12h15p12-12--15p12-12--15p12-12\---|-|----------------------------------------------------------------|-|----------------------------------------------------------------|-|----------------------------------------------------------------|-|----------------------------------------------------------------|
---------------------------------14////////------------14-|-14h17-17--14h17-17--14h17-17----15////////15-14-15-17----|----------------------------------------------------------|----------------------------------------------------------|----------------------------------------------------------|----------------------------------------------------------|
-17p14-17p14-17p14-17^--17^-17^-17^-rp14--14----------------|----------------------------------------17--17^-17p15-------|------------------------------------------------------------|------------------------------------------------------------|------------------------------------------------------------|------------------------------------------------------------|
-|----------------------------------------------------------------------|-|---------15--15-15-14----17-15-14-------------15--14-----15-14--------|-|-16/////--------------------------14----h16--------------------16-16--|-|-16/////-----------------------------16-------------------------------|-|----------------------------------------------------------------------|-|----------------------------------------------------------------------|
--------------------------------------------------------------------|----------------------12--------------------------------------------|----------11----------------------11-----------------11-------------|----12-14----14----14^---14p12h14---12---------12-12----14----12h14-|-14-----------------------------------14----14----------------------|--------------------------------------------------------------------|
-|----7/////----9/////----10/////----12//-14-14----14----14----14-----|-|-10^-------12^-------13^--------15^-----------17^---17^---17^---17^-|-|--------------------------------------------------------------------|-|--------------------------------------------------------------------|-|--------------------------------------------------------------------|-|--------------------------------------------------------------------|
-14-15^-----------14---------------------------------------------|--------17-15-17^---15------15-------15-------14h17-17-14h17-17--|----------------------16-16----16-16----16-16--------------------|-----------------------------------------------------------------|-----------------------------------------------------------------|-----------------------------------------------------------------|then it fadesfixed by chikito70
Tap to rate this tab
 
# A B C D E F G H I J K L M N O P Q R S T U V W X Y Z