Saosin - Bury Your Head tab

This is a great song by a very good band, its hard to find a good tab of it, so see what
you think of this one. Im pretty sure its right, but I havn't included the wierd effects,
and I believe there is a 3rd guitar part in the second verse, but i couldnt tab it, this
is my first tab so go easy!

Tuning  Drop D (The song is usually played in C G C F A D)

Intro
                                                                             
|---------------|-------------------------|---------------|------------------||---------------|-------------------------|---------------|------------------||---------------|----/9--9--9--9--9--9--9-|---------------|---/6-6-6-6-4-2-4-||-4--4-4-4--4-4-|-x--/x--x--x--x--x--x--x-|-0--0-0-0--0-0-|-x-/x-x-x-x-x-x-x-||-4--4-4-4--4-4-|-x--/7--7--7--7--7--7--7-|-0--0-0-0--0-0-|-x-/4-4-4-4-2-0-2-||-4--4-4-4--4-4-|-x-----------------------|-0--0-0-0--0-0-|-x----------------|
| X2|---------------|-------------------------|---------------|------------------||---------------|-------------------------|---------------|------------------||---------------|----/9--9--9--9-9--9--9-|---------------|---/6-6-6-6-4-2-4-||-4--4-4-4--4-4-|-x--/x--x--x--x--x--x--x-|-0--0-0-0--0-0-|-x-/x-x-x-x-x-x-x-||-4--4-4-4--4-4-|-x--/7--7--7--7--7--7--7-|-0--0-0-0--0-0-|-x-/4-4-4-4-2-0-2-||-4--4-4-4--4-4-|-x-----------------------|-0--0-0-0--0-0-|-x----------------|
Pre-Verse
|------------9--------|------------9--------|------------9--------|------------9--------||--5h7--5h7----7p=5h7-|--5h7--5h7----7p=5h7-|--5h7--5h7----7p=5h7-|--5h7--5h7----7p=5h7-||---------------------|---------------------|---------------------|---------------------||---------------------|---------------------|---------------------|---------------------||---------------------|---------------------|---------------------|---------------------||---------------------|---------------------|---------------------|---------------------|
|
|----5----5----5----5-|----5----5----5----5-|----5----5----5----5-|----5----5----5----5-||--9----9----9----9---|--9----9----9----9---|--9----9----9----9---|--9----9----9----9---||---------------------|---------------------|---------------------|---------------------||---------------------|---------------------|---------------------|---------------------||---------------------|---------------------|---------------------|---------------------||---------------------|---------------------|---------------------|---------------------|
Verse
|---------------------|---------------------||---------------------|---------------------||-------1---------1---|-------1---------1---||--4---------4--------|--4---------4--------||---------------------|---------------------||---------------------|---------------------|
|
|----5----5----5----5-|----5----5----5----5-||--9----9----9----9---|--9----9----9----9---||---------------------|---------------------||---------------------|---------------------||---------------------|---------------------||---------------------|---------------------|
|-------------------------|-------------------------||-------------------------|-------------------------||--------2-----------2----|--------2-----------2----||--4-----------4----------|--4-----------4----------||-------------------------|-------------------------||-------------------------|-------------------------|
|
|----10----10----10----10-|----10----10----10----10-||--9-----9-----9-----9----|--9-----9-----9-----9----||-------------------------|-------------------------||-------------------------|-------------------------||-------------------------|-------------------------||-------------------------|-------------------------|
|---------------------|---------------------||---------------------|---------------------||-------1---------1---|-------1---------1---||--4---------4--------|--4---------4--------||---------------------|---------------------||---------------------|---------------------|
|
|----5----5----5----5-|----5----5----5----5-||--9----9----9----9---|--9----9----9----9---||---------------------|---------------------||---------------------|---------------------||---------------------|---------------------||---------------------|---------------------|
|---------------------|-------------------------||---------------------|-------------------------||-------2---------2---|--------2-----------2----||--4---------4--------|--4-----------4----------||---------------------|-------------------------||---------------------|-------------------------|
|
|----7----7----7----7-|-----9-----9-----9-----9-||--9----9----9----9---|--9-----9-----9-----9----||---------------------|-------------------------||---------------------|-------------------------||---------------------|-------------------------||---------------------|-------------------------|
|---------------------|---------------------||---------------------|---------------------||-------1---------1---|-------1---------1---||--4---------4--------|--4---------4--------||---------------------|---------------------||---------------------|---------------------|
|
|----5----5----5----5-|----5----5----5----5-||--9----9----9----9---|--9----9----9----9---||---------------------|---------------------||---------------------|---------------------||---------------------|---------------------||---------------------|---------------------|
|-------------------------|-------------------------||-------------------------|-------------------------||--------2-----------2----|--------2-----------2----||--4-----------4----------|--4-----------4----------||-------------------------|-------------------------||-------------------------|-------------------------|
|
|----10----10----10----10-|----10----10----10----10-||--9-----9-----9-----9----|--9-----9-----9-----9----||-------------------------|-------------------------||-------------------------|-------------------------||-------------------------|-------------------------||-------------------------|-------------------------|
|---------------------|---------------------||---------------------|---------------------||-------1---------1---|-------1---------1---||--4---------4--------|--4---------4--------||---------------------|---------------------||---------------------|---------------------|
|
|----5----5----5----5-|----5----5----5----5-||--9----9----9----9---|--9----9----9----9---||---------------------|---------------------||---------------------|---------------------||---------------------|---------------------||---------------------|---------------------|
|---------------------|-------------------------||---------------------|-------------------------||-------4---------4---|-/6-----------4--------2-||-/7---------7--------|-------------------------||---------------------|-------------------------||---------------------|-------------------------|
|
|----7----7----7----7-|-----9-----9------9-10---||--9----9----9----9---|--9-----9-----9----------||---------------------|-------------------------||---------------------|-------------------------||---------------------|-------------------------||---------------------|-------------------------|
Pre-Chorus
|--------------------|--------------------|-------------------|--------------------||--------------------|--------------------|-------------------|--------------------||--------------------|--------------------|-------------------|--------------------||--6---4----6h7p6p4--|----4-6----6h7p6----|--6---4---6h7p6p4--|---4-6-----6h7p6----||----4---4-----------|--4-----4--------4p-|----4---4----------|-4------4--------4p-||--------------------|--------------------|-------------------|--------------------|
| X2|-----------9p7p5----|-----------9p7p5----|----------4h5p4----|-----------9p7p5----||--9---7----------5p-|--9---7----------5p-|--9---7---------5p-|---7----9--------5p-||----6---6-----------|----6---6-----------|----6---6----------|-6---6--------------||--------------------|--------------------|-------------------|--------------------||--------------------|--------------------|-------------------|--------------------||--------------------|--------------------|-------------------|--------------------|
Chorus - Same as Intro Pre-Verse Verse
Pre-Chorus|-------------------|-------------------|------------------|-------------------||-------------------|-------------------|------------------|-------------------||-------------------|-------------------|------------------|-------------------||-------------------|-------------------|------------------|-------------------||--0-0-0-0--0-0-0-0-|--0-0-0-0--0-0-0-0-|--2-2-2-2-2-2-2-2-|-2-2-2--2--2-2-2-2-||--0-0-0-0--0-0-0-0-|--0-0-0-0--0-0-0-0-|--2-2-2-2-2-2-2-2-|-2-2-2--2--2-2-2-2-|
| . . . . . . . . . . . . . . . . . . . . . . . . . . . . . . . .|-----------9-7-5---|-----------9-7-5---|----------4-5-4---|-----------9-7-5---||--9---7----------5-|--9---7----------5-|--9---7---------5-|---7----9--------5-||----6---6----------|----6---6----------|----6---6---------|-6---6-------------||-------------------|-------------------|------------------|-------------------||-------------------|-------------------|------------------|-------------------|
|------------------|-------------------|------------------|-------------------||------------------|-------------------|------------------|-------------------||------------------|-------------------|------------------|-------------------||--6-6-6-6-6-6-6-6-|-6-6-6--6--6-6-6-6-|------------------|-------------------||--4-4-4-4-4-4-4-4-|-4-4-4--4--4-4-4-4-|--4-4-4-4-4-4-4-4-|-2-2-2--2--2-2-2-2-||------------------|-------------------|--4-4-4-4-4-4-4-4-|-2-2-2--2--2-2-2-2-|| . . . . . . . . . . . . . . . . . . . . . . . . . . . . . . . .
|----------4-5-4---|-----------9-7-5---|----------4-5-4---|-----------9-7-5---||--9---7---------5-|---7----9--------5-|--9---7---------5-|---7----9--------5-||----6---6---------|-6---6-------------|----6---6---------|-6---6-------------||------------------|-------------------|------------------|-------------------||------------------|-------------------|------------------|-------------------||------------------|-------------------|------------------|-------------------|
Chorus
|--------------------|--------------------------|------------------|--------------------||o-------------------|--------------------------|------------------|--------------------||--------------------|----/-9--9--9--9--9--9--9-|------------------|--------------------||---4---4-4--4---4-4-|--x--/x--x--x--x--x--x--x-|--0---0-0-0---0-0-|-0---0--0----0-0-0--||o--4---4-4--4---4-4-|--x--/7--7--7--7--7--7--7-|--0---0-0-0---0-0-|-0---0--0----0-0-0--||---4---4-4--4---4-4-|--x-----------------------|--0---0-0-0---0-0-|-0---0--0----0-0-0--|
|
|------------9-7-5---|---------------9--7--5----|----------4-5-4---|-----------9-7-5----||o--9---7----------5-|--9------7--------------5-|--9---7---------5-|---7----9--------5--||-----6---6----------|------6-----6-------------|----6---6---------|-6---6--------------||--------------------|--------------------------|------------------|--------------------||o-------------------|--------------------------|------------------|--------------------||--------------------|--------------------------|------------------|--------------------|
|------------------|-------------------------|------------------|-----------------------||------------------|-------------------------|------------------|-----------------------||------------------|----/9--9--9--9--9--9--9-|------------------|--------------/6-6-6-4-||--4---4-4-4---4-4-|-x--/x--x--x--x--x--x--x-|--2---2-2-2---2-2-|--------------/x-x-x-x-||--4---4-4-4---4-4-|-x--/7--7--7--7--7--7--7-|--2---2-2-2---2-2-|-0-0-0-0--0-0-/4-4-4-2-||--4---4-4-4---4-4-|-x-----------------------|--2---2-2-2---2-2-|-0-0-0-0--0-0----------|
|
|----------4-5-4---|--------------9--7--5----|----------4-5-4---|---------------9-7-5---||--9---7---------5-|-----7-----9-----------5-|--9---7---------5-|---7------9----------5-||----6---6---------|-6------6----------------|----6---6---------|-6---6-----------------||------------------|-------------------------|------------------|-----------------------||------------------|-------------------------|------------------|-----------------------||------------------|-------------------------|------------------|-----------------------|
Pre-Interlude
|----------|----------|----------|--5----||----------|----------|----------|--9----||----------|----------|----------|-------||----------|----------|----------|-------||----------|----------|----------|-------||----------|----------|----------|-------|
Interlude
||------------------|-----------------|-----------------|------------------|||o-----------------|-----------------|-----------------|------------------|||------------------|-----------------|-6-6---6-6-6---6-|-6-6---6-6-6-6-6--|||--4-4---4-4-4---4-|-4-4---4-4-4-4-4-|-6-6---6-6-6---6-|-6-6---6-6-6-6-6--|||o-4-4---4-4-4---4-|-4-4---4-4-4-4-4-|-4-4---4-4-4---4-|-4-4---4-4-4-4-4--|||--4-4---4-4-4---4-|-4-4---4-4-4-4-4-|-----------------|------------------|
|
||------------------|-----------------|-----------------|------------------|||o-----------------|-----------------|-----------------|------------------|||------------------|-----------------|-----------------|------------------|||--4p2---4p2---4p2-|---4p2---4p2-----|-6p4---6p4---6p4-|---6p4---6p4------|||o-----4-----4-----|-4-----4-----4---|-----4-----4-----|-4-----4-----4----|||------------------|-----------------|-----------------|------------------| . . . . . . . . . .
|-----------------|-----------------|-----------------|------------------|||-----------------|-----------------|-----------------|-----------------o|||-----------------|-----------------|-----------------|------------------|||-7-7---7-7-7---7-|-7-7---7-7-7-7-7-|-2-2---2-2-2---2-|-2-0---0-0-0-0-0--|||-7-7---7-7-7---7-|-7-7---7-7-7-7-7-|-2-2---2-2-2---2-|-2-0---0-0-0-0-0-o|||-7-7---7-7-7---7-|-7-7---7-7-7-7-7-|-2-2---2-2-2---2-|-2-0---0-0-0-0-0--||
| x3|-----------------|-----------------|-----------------|------------------|||-----------------|-----------------|-----------------|-----------------o|||-----------------|-----------------|-----------------|------------------|||-7p6---7p6---7p6-|---7p6---7p6-----|-6p4---6p4---6p4-|---------7--------|||-----4-----4-----|-4-----4-----4---|-----4-----4-----|-4-4h5p4---5p4h5-o|||-----------------|-----------------|-----------------|------------------|| . . . . . . . . . . . . . . .Out-Chorus
||----------------|-------------------------|---------------|-------------------|||o---------------|-------------------------|---------------|-------------------|||----------------|----/9--9--9--9--9--9--9-|---------------|---/6-6-6-6-4-2-4--|||--4--4-4-4--4-4-|-x--/x--x--x--x--x--x--x-|-0--0-0-0--0-0-|-x-/x-x-x-x-x-x-x--|||o-4--4-4-4--4-4-|-x--/7--7--7--7--7--7--7-|-0--0-0-0--0-0-|-x-/4-4-4-4-2-0-2--|||--4--4-4-4--4-4-|-x-----------------------|-0--0-0-0--0-0-|-x-----------------|
|
||----------------|-------------------------|---------------|-------------------|||o---------------|-------------------------|---------------|-------------------|||----------------|----/9--9--9--9--9--9--9-|---------------|---/6-6-6-6-4-2-4--|||--4--4-4-4--4-4-|-x--/x--x--x--x--x--x--x-|-0--0-0-0--0-0-|-x-/x-x-x-x-x-x-x--|||o-4--4-4-4--4-4-|-x--/7--7--7--7--7--7--7-|-0--0-0-0--0-0-|-x-/4-4-4-4-2-0-2--|||--4--4-4-4--4-4-|-x-----------------------|-0--0-0-0--0-0-|-x-----------------|
|---------------|-------------------------|---------------|-----------------------|||---------------|-------------------------|---------------|----------------------o|||---------------|----/9--9--9--9--9--9--9-|---------------|-------------/6-6-6-4--|||-4--4-4-4--4-4-|-x--/x--x--x--x--x--x--x-|-2--2-2-2--2-2-|-------------/x-x-x-x--|||-4--4-4-4--4-4-|-x--/7--7--7--7--7--7--7-|-2--2-2-2--2-2-|-0-0-0-0-0-0-/4-4-4-2-o|||-4--4-4-4--4-4-|-x-----------------------|-2--2-2-2--2-2-|-0-0-0-0-0-0-----------||
| . . . . . .|---------------|-------------------------|---------------|-----------------------|||---------------|-------------------------|---------------|----------------------o|||---------------|----/9--9--9--9--9--9--9-|---------------|-------------/6-6-6-4--|||-4--4-4-4--4-4-|-x--/x--x--x--x--x--x--x-|-2--2-2-2--2-2-|-------------/x-x-x-x--|||-4--4-4-4--4-4-|-x--/7--7--7--7--7--7--7-|-2--2-2-2--2-2-|-0-0-0-0-0-0-/4-4-4-2-o|||-4--4-4-4--4-4-|-x-----------------------|-2--2-2-2--2-2-|-0-0-0-0-0-0-----------||
. . . . . .|----------------------|----------------------|---------------------|----------*||----------------------|----------------------|---------------------|----------*||-------------/6-6-6-4-|-------------/6-6-6-4-|-------------/6-4----|----------*||-------------/x-x-x-x-|-------------/x-x-x-x-|-------------/x-x----|-4--------*||-0-0-0-0-0-0-/4-4-4-2-|-0-0-0-0-0-0-/4-4-4-2-|-0-0-0-0-0-0-/4-2----|-4--------*||-0-0-0-0-0-0----------|-0-0-0-0-0-0----------|-0-0-0-0-0-0---------|-4--------*|
| . . . . . . . . . . . . . . . . . .|----------------------|----------------------|---------------------|----------*||----------------------|----------------------|---------------------|----------*||-------------/6-6-6-4-|-------------/6-6-6-4-|-------------/6------|----------*||-------------/x-x-x-x-|-------------/x-x-x-x-|-------------/x------|-4--------*||-0-0-0-0-0-0-/4-4-4-2-|-0-0-0-0-0-0-/4-4-4-2-|-0-0-0-0-0-0-/4------|-4--------*||-0-0-0-0-0-0----------|-0-0-0-0-0-0----------|-0-0-0-0-0-0---------|-4--------*| . . . . . . . . . . . . . . . . . .
The End
Tap to rate this tab
 
# A B C D E F G H I J K L M N O P Q R S T U V W X Y Z