Saosin - Third Measurement In C tab

 _______________________
|                       | SONG:      3RD MEASUREMENT IN C	
|       SAOSIN          | ALBUM:     TRANSLATING THE NAME EP
|_______________________| TABBED BY: ibnzplayer0 (label_Sk8er1@yahoo.com)
 ______________________
| . = PALM MUTE        |
| ~ = LET NOTE RING    |
| / = SLIDE UP         |
| V = NATURAL HARMONIC |
| + = TIED NOTE        |
| b = BEND NOTE        |
|______________________|
TUNING : C G C F A D
2 GUITARS 
Q = 106
__________________________________________________________________________

[INTRO] Gtr I|-------------------------|----------------------------------||-5-5-5-5-5-5-5-5-5-5-5-5-|-5-5-5-5-5-5-5--5-5-5-5-5-5-5-5-5-||-x-x-x-x-x-x-x-x-x-x-x-x-|-x-x-x-x-x-x-x--x-x-x-x-x-x-x-x-x-||-2-6-6-6-7-7-7-7-6-6-6-6-|-2-2-2-2-6-6-6--6-7-7-7-7-6-6-6-6-||-------------------------|----------------------------------||-------------------------|----------------------------------|
|
| Gtr II|-------------------------|----------------------------------||-------------------------|----------------------------------||-------------------------|----------------------------------||-4-6-6-6-7-7-7-6---6-6-6-|-0---6---6---6-/9---9-9-6---6-6-6-||-4-4-4-4-4-4-4-4---4-4-4-|-0---0---0---0--0---0-0-0---0-0-0-||-4-4-4-4-4-4-4-4---4-4-4-|-0---0---0---0--0---0-0-0---0-0-0-|
PM--------------------||--------------------------------|-------------------------||-5-5-5-5-5----------------------|-------------------------||-x-x-x-x-x-13-13-13-14-14-14-14-|-------------------------||-2-6-6-6-7----------------------|-------------------------||-----------11-11-11-12-12-12-12-|-0-0-0-0-0-0-2-2-2-2-2-2-||--------------------------------|-0-0-0-0-0-0-2-2-2-2-2-2-|X2
| |
| PM--------------------||--------------------------------|-------------------------||--------------------------------|-------------------------||-----------13-13-13-14-14-14-14-|-------------------------||-2-6-6-6-7----------------------|-------------------------||-2-2-2-2-2-11-11-11-12-12-12-12-|-0-0-0-0-0-0-2-2-2-2-2-2-||-2-2-2-2-2----------------------|-0-0-0-0-0-0-2-2-2-2-2-2-|X2
[VERSE]|------------------------------|---------------------------------||------------------------------|---------------------------------||---------9---------9----------|-----------9---------9-----------||-6-6-7-7---6-6-7-7----6-6-6-7-|--6--6-7-7---6-6-7-7----6-6-6-7--||------------------------------|---------------------------------||------------------------------|---------------------------------|
| |
|------------------------------|---------------------------------||---------9-----9-----10-------|-----------9-----9-----10--------||-----9-----9-------9------9---|-(9)---9-----9-------9------9----||------------------------------|---------------------------------||------------------------------|---------------------------------||------------------------------|---------------------------------|
|--------------------------------|-----------------------------||--------------------------------|-----------------------10-9--||-----------9---------9----------|-----------9---------9-------||--6--6-7-7---6-6-7-7----6-6-6-7-|--6--6-7-7---6-6-7-7---------||--------------------------------|-----------------------------||--------------------------------|-----------------------------|X3
| |
|--------------------------------|-----------------------------||-----------9-----9-----10-------|-----------9-----9-----10-9--||-(9)---9-----9-------9------9---|-(9)---9-----9-------9-------||--------------------------------|-----------------------------||--------------------------------|-----------------------------||--------------------------------|-----------------------------|X3
|------------------------------|--------------------------------||------------------------------|--------------------------------||---------9---------9----------|-----------9---------9----------||-6-6-7-7---6-6-7-7----6-6-6-7-|--6--6-7-7---6-6-7-7----6-6-6-7-||------------------------------|--------------------------------||------------------------------|--------------------------------|
|
|------------------------------|--------------------------------||---------9-----9-----10-------|-----------9-----9-----10-------||-----9-----9-------9------9---|-(9)---9-----9-------9------9---||------------------------------|--------------------------------||------------------------------|--------------------------------||------------------------------|--------------------------------|
PM--------||--------------------------------|-----------------------------||--------------------------------|-----------------------------||-----------9---------9----------|-----------------------------||--6--6-7-7---6-6-7-7----6-6-6-7-|-------------2-2-2-2-2-2-2-2-||--------------------------------|-0-0-0-0-0-0-2-2-2-2-2-2-2-2-||--------------------------------|-0-0-0-0-0-0-2-2-2-2-2-2-2-2-|
|
| PM--------||--------------------------------|-----------------------------||-----------9-----9-----10-------|-----------------------------||-(9)---9-----9-------9------9---|-----------------------------||--------------------------------|-------------2-2-2-2-2-2-2-2-||--------------------------------|-0-0-0-0-0-0-2-2-2-2-2-2-2-2-||--------------------------------|-0-0-0-0-0-0-2-2-2-2-2-2-2-2-|
[CHORUS]|-------------------------|-----------------------------------||-5-5-5-5-5-5-5-5-5-5-5-5-|-5-5-5-5-5-5-5--5-5-5-5-5-5-5-5-5--||-x-x-x-x-x-x-x-x-x-x-x-x-|-x-x-x-x-x-x-x--x-x-x-x-x-x-x-x-x--||-2-6-6-6-7-7-7-7-6-6-6-6-|-2-2-2-2-6-6-6--6-7-7-7-7-6-6-6-6--||-------------------------|-----------------------------------||-------------------------|-----------------------------------|
|
|-------------------------|-----------------------------------||-------------------------|-----------------------------------||-------------------------|-----------------------------------||-4-6-6-6-7-7-7-6---6-6-6-|-0---6---6---6-/9---9-9-6---6-6-6--||-4-4-4-4-4-4-4-4---4-4-4-|-0---0---0---0--0---0-0-0---0-0-0--||-4-4-4-4-4-4-4-4---4-4-4-|-0---0---0---0--0---0-0-0---0-0-0--|
|--------------------------------|-------------------------||-5-5-5-5-5----------------------|-------------------------||-x-x-x-x-x-13-13-13-14-14-14-14-|-------------------------||-2-6-6-6-7----------------------|-------------------------||-----------11-11-11-12-12-12-12-|-0-0-0-0-0-0-2-2-2-2-2-2-||--------------------------------|-0-0-0-0-0-0-2-2-2-2-2-2-|X2
|
| PM--------------------||--------------------------------|-------------------------||--------------------------------|-------------------------||-----------13-13-13-14-14-14-14-|-------------------------||-2-6-6-6-7----------------------|-------------------------||-2-2-2-2-2-11-11-11-12-12-12-12-|-0-0-0-0-0-0-2-2-2-2-2-2-||-2-2-2-2-2----------------------|-0-0-0-0-0-0-2-2-2-2-2-2-|X2
[VERSE]|------------------------------|---------------------------------||------------------------------|---------------------------------||---------9---------9----------|-----------9---------9-----------||-6-6-7-7---6-6-7-7----6-6-6-7-|--6--6-7-7---6-6-7-7----6-6-6-7--||------------------------------|---------------------------------||------------------------------|---------------------------------|
| |
|------------------------------|---------------------------------||---------9-----9-----10-------|-----------9-----9-----10--------||-----9-----9-------9------9---|-(9)---9-----9-------9------9----||------------------------------|---------------------------------||------------------------------|---------------------------------||------------------------------|---------------------------------|
|--------------------------------|-----------------------------||--------------------------------|-----------------------10-9--||-----------9---------9----------|-----------9---------9-------||--6--6-7-7---6-6-7-7----6-6-6-7-|--6--6-7-7---6-6-7-7---------||--------------------------------|-----------------------------||--------------------------------|-----------------------------|
| |
|--------------------------------|-----------------------------||-----------9-----9-----10-------|-----------9-----9-----10-9--||-(9)---9-----9-------9------9---|-(9)---9-----9-------9-------||--------------------------------|-----------------------------||--------------------------------|-----------------------------||--------------------------------|-----------------------------|
|------------------------------|--------------------------------||------------------------------|--------------------------------||---------9---------9----------|-----------9---------9----------||-6-6-7-7---6-6-7-7----6-6-6-7-|--6--6-7-7---6-6-7-7----6-6-6-7-||------------------------------|--------------------------------||------------------------------|--------------------------------|
|
|------------------------------|--------------------------------||---------9-----9-----10-------|-----------9-----9-----10-------||-----9-----9-------9------9---|-(9)---9-----9-------9------9---||------------------------------|--------------------------------||------------------------------|--------------------------------||------------------------------|--------------------------------|
PM--------||--------------------------------|-----------------------------||--------------------------------|-----------------------------||-----------9---------9----------|-----------------------------||--6--6-7-7---6-6-7-7----6-6-6-7-|-------------2-2-2-2-2-2-2-2-||--------------------------------|-0-0-0-0-0-0-2-2-2-2-2-2-2-2-||--------------------------------|-0-0-0-0-0-0-2-2-2-2-2-2-2-2-|
|
| PM--------||--------------------------------|-----------------------------||-----------9-----9-----10-------|-----------------------------||-(9)---9-----9-------9------9---|-----------------------------||--------------------------------|-------------2-2-2-2-2-2-2-2-||--------------------------------|-0-0-0-0-0-0-2-2-2-2-2-2-2-2-||--------------------------------|-0-0-0-0-0-0-2-2-2-2-2-2-2-2-|
[CHORUS]|-------------------------|-----------------------------------||-5-5-5-5-5-5-5-5-5-5-5-5-|-5-5-5-5-5-5-5--5-5-5-5-5-5-5-5-5--||-x-x-x-x-x-x-x-x-x-x-x-x-|-x-x-x-x-x-x-x--x-x-x-x-x-x-x-x-x--||-2-6-6-6-7-7-7-7-6-6-6-6-|-2-2-2-2-6-6-6--6-7-7-7-7-6-6-6-6--||-------------------------|-----------------------------------||-------------------------|-----------------------------------|
|
|-------------------------|-----------------------------------||-------------------------|-----------------------------------||-------------------------|-----------------------------------||-4-6-6-6-7-7-7-6---6-6-6-|-0---6---6---6-/9---9-9-6---6-6-6--||-4-4-4-4-4-4-4-4---4-4-4-|-0---0---0---0--0---0-0-0---0-0-0--||-4-4-4-4-4-4-4-4---4-4-4-|-0---0---0---0--0---0-0-0---0-0-0--|
|--------------------------------|-------------------------||-5-5-5-5-5----------------------|-------------------------||-x-x-x-x-x-13-13-13-14-14-14-14-|-------------------------||-2-6-6-6-7----------------------|-------------------------||-----------11-11-11-12-12-12-12-|-0-0-0-0-0-0-2-2-2-2-2-2-||--------------------------------|-0-0-0-0-0-0-2-2-2-2-2-2-|X2
|
| PM--------------------||--------------------------------|-------------------------||--------------------------------|-------------------------||-----------13-13-13-14-14-14-14-|-------------------------||-2-6-6-6-7----------------------|-------------------------||-2-2-2-2-2-11-11-11-12-12-12-12-|-0-0-0-0-0-0-2-2-2-2-2-2-||-2-2-2-2-2----------------------|-0-0-0-0-0-0-2-2-2-2-2-2-|X2
[Breakdown]Gtrs I, II|----------|----------|----------|------||----------|----------|----------|------||----------|----------|----------|------||-0--------|-2--------|-4--------|-7----||-0--------|-2--------|-4--------|-7----||-0--------|-2--------|-4--------|-7----|
Gtr I|------------|-----------|-----------|-------||------------|-----------|-----------|-------||-/14--------|-13--------|-14--------|-\9----||---x--------|--x--------|--x--------|--x----||-/12--------|-11--------|-12--------|-\7----||------------|-----------|-----------|-------|
|
| Gtr II|------------|-----------|-----------|-------||------------|-----------|-----------|-------||------------|-----------|-----------|-------||---0--------|--2--------|--4--------|--7----||---0--------|--2--------|--4--------|--7----||---0--------|--2--------|--4--------|--7----|
|------------|-----------|-----------|-------||------------|-----------|-----------|-------||-/14--------|-13--------|-14--------|-\9----||---x--------|--x--------|--x--------|--x----||-/12--------|-11--------|-12--------|-\7----||------------|-----------|-----------|-------|
|
|------------|-----------|-----------|-------||------------|-----------|-----------|-------||--/6--------|--4--------|-----------|-------||---0--------|--2--------|--7--------|--7----||---0--------|--2--------|--4--------|--7----||---0--------|--2--------|--4--------|--7----|
[OUTRO]|-------------------------------------|-------------------------------------||-------------------------------------|-------------------------------------||-14-14-14-13-14-14-13-13-13-14-14-14-|-14-14-14-13-14-14-13-13-13-14-14-14-||--x--x--x--x--x--x--x--x--x--x--x--x-|--x--x--x--x--x--x--x--x--x--x--x--x-||-12-12-12-11-12-12-11-11-11-12-12-12-|-12-12-12-11-12-12-11-11-11-12-12-12-||-------------------------------------|-------------------------------------|
|
|-------------------------------------|-------------------------------------||-------------------------------------|-------------------------------------||-------------------------------------|-------------------------------------||--0--0-----0--0--0--0--0--0--0--0--0-|--2--2-----2--2--2--2--2--2--2--2--2-||--0--0-----0--0--0--0--0--0--0--0--0-|--2--2-----2--2--2--2--2--2--2--2--2-||--0--0-----0--0--0--0--0--0--0--0--0-|--2--2-----2--2--2--2--2--2--2--2--2-|
|-------------------------------------||-------------------------------------||-14-14-14-13-14-14-13-13-13-14-14-14-||--x--x--x--x--x--x--x--x--x--x--x--x-||-12-12-12-11-12-12-11-11-11-12-12-12-||-------------------------------------|
|
|-------------------------------------||-------------------------------------||-------------------------------------||--4--4-----4--4--4--4--4--4--4--4--4-||--4--4-----4--4--4--4--4--4--4--4--4-||--4--4-----4--4--4--4--4--4--4--4--4-|
|-------------------------------------------------||-------------------------------------------------||-16-16-16-16-16-16-16-16-16-16-16-16-16-16-16-16-||--x--x--x--x--x--x--x--x--x--x--x--x--x--x--x--x-||-14-14-14-14-14-14-14-14-14-14-14-14-14-14-14-14-||-------------------------------------------------|x3
| |
|-------------------------------------------------||-------------------------------------------------||-------------------------------------------------||--7--7--7--7--7--7--7--7--7--7--7--7--7--7--7--7-||--7--7--7--7--7--7--7--7--7--7--7--7--7--7--7--7-||--7--7--7--7--7--7--7--7--7--7--7--7--7--7--7--7-|x3
D5 E5|------------------------------------|-----*||------------------------------------|-----*||--9--9--9--9--9--9---9--9--9--9--9--|-----*||--x--x--x--x--x--x---x--x--x--x--x--|-----*||-11-11-11-11-11-11-/12-12-12-11-11--|-----*||------------------------------------|-----*|
|
| PM----------------------------||------------------------------------|-----*||------------------------------------|-----*||------------------------------------|-----*||------------------------------------|-----*||--0--0--0--0--0--0---2--2--2--2--2--|-----*||--0--0--0--0--0--0---2--2--2--2--2--|-----*|
thats it, have fun...
Tap to rate this tab
 
# A B C D E F G H I J K L M N O P Q R S T U V W X Y Z