Saosin - Voices Acoustic tab

"Voices (Acoustic)"
Tabbed by Andrew Adams



[Guitar 1]

[Intro]

|-----------------|-----------------|-----------------|-----------------||-----------------|-----------------|-----------------|-----------------||-4-4-4-4-4-4-4-4-|-7-7-7-7-7-7-7-7-|-----------------|-----------------||-4-4-4-4-4-4-4-4-|-7-7-7-7-7-7-7-7-|-7-7-7-7-7-7-7-7-|-5-5-5-5-5-5-5-5-||-2-2-2-2-2-2-2-2-|-5-5-5-5-5-5-5-5-|-7-7-7-7-7-7-7-7-|-5-5-5-5-5-5-5-5-||-----------------|-----------------|-5-5-5-5-5-5-5-5-|-3-3-3-3-3-3-3-3-|
[Verse]
|-----------------|-----------------|-----------------|-----------------||-----------------|-----------------|-----------------|-----------------||-4-4-4-4-4-4-4-4-|-----------------|-----------------|-----------------||-4-4-4-4-4-4-4-4-|-7-7-7-7-7-7-7-7-|-5-5-5-5-5-5-5-5-|-7-7-7-7-7-7-7-7-||-2-2-2-2-2-2-2-2-|-7-7-7-7-7-7-7-7-|-5-5-5-5-5-5-5-5-|-7-7-7-7-7-7-7-7-||-----------------|-5-5-5-5-5-5-5-5-|-3-3-3-3-3-3-3-3-|-5-5-5-5-5-5-5-5-|
[Chorus]|-----------------|-----------------|-----------------|-----------------||-----------------|-----------------|-----------------|-----------------||-4-4-4-4-4-4-4-4-|-7-7-7-7-7-7-7-7-|-----------------|-----------------||-4-4-4-4-4-4-4-4-|-7-7-7-7-7-7-7-7-|-7-7-7-7-7-7-7-7-|-5-5-5-5-5-5-5-5-||-2-2-2-2-2-2-2-2-|-5-5-5-5-5-5-5-5-|-7-7-7-7-7-7-7-7-|-5-5-5-5-5-5-5-5-||-----------------|-----------------|-5-5-5-5-5-5-5-5-|-3-3-3-3-3-3-3-3-|
[Bridge]
|-----------------|-----------------|-----------------|-----------------||-----------------|-----------------|-----------------|-----------------||-----------------|-----------------|-----------------|-----------------||-2-2-2-2-2-2-2-2-|-5-5-5-5-5-5-5-5-|-9-9-9-9-9-9-9-9-|-7-7-7-7-7-7-7-7-||-2-2-2-2-2-2-2-2-|-5-5-5-5-5-5-5-5-|-9-9-9-9-9-9-9-9-|-7-7-7-7-7-7-7-7-||-0-0-0-0-0-0-0-0-|-3-3-3-3-3-3-3-3-|-7-7-7-7-7-7-7-7-|-5-5-5-5-5-5-5-5-|
|-----------|-----------|-----------|--------------||-----------|-----------|-----------|--------------||-----------|-----------|-----------|-4-4--4--4-2--||-2--2--2-2-|-2--2--2-2-|-2--2--2-2-|-4-4--4--4-2--||-2--2--2-2-|-2--2--2-2-|-2--2--2-2-|-2-2--2--2-0--||-0--0--0-0-|-0--0--0-0-|-0--0--0-0-|--------------|
[Outro]|-----------------|-----------------|-----------------|-----------------||-----------------|-----------------|-----------------|-----------------||-4-4-4-4-4-4-4-4-|-4-4-4-4-4-4-4-4-|-4-4-4-4-4-4-4-4-|-4-4-4-4-4-4-4-4-||-4-4-4-4-4-4-4-4-|-4-4-4-4-4-4-4-4-|-4-4-4-4-4-4-4-4-|-4-4-4-4-4-4-4-4-||-2-2-2-2-2-2-2-2-|-2-2-2-2-2-2-2-2-|-2-2-2-2-2-2-2-2-|-2-2-2-2-2-2-2-2-||-----------------|-----------------|-----------------|-----------------|
I’ll never...|-------------|----||-------------|----||-------------|-4--||-------------|-4--||-------------|-2--||-------------|----|
______________________________________________________ [Guitar 2] [Intro]
|-------12----12----------|-------12----12----------||-------------------------|-------------------------||----11----11----11----11-|----11----11----11----11-||-------------------------|-------------------------||-10----------------10----|-10----------------10----||-------------------------|-------------------------|
|-------12----12----------|-------12----12----------||-------------------------|-------------------------||----11----11----11----11-|----11----11----11----11-||-------------------------|-------------------------||-10----------------10----|-10----------------10----||-------------------------|-------------------------|
|-------14----14----------|-------14----14----------||-------------------------|-------------------------||----11----11----11----11-|----11----11----11----11-||-------------------------|-------------------------||-14----------------14----|-14----------------14----||-------------------------|-------------------------|
|-------12----12----------|-------12----12----------||-------------------------|-------------------------||----11----11----11----11-|----11----11----11----11-||-------------------------|-------------------------||-10----------------10----|-10----------------10----||-------------------------|-------------------------|
|-------14----14----------|-------14----14----------||-------------------------|-------------------------||----11----11----11----11-|----11----11----11----11-||-------------------------|-------------------------||-14----------------14----|-14----------------14----||-------------------------|-------------------------|
[Verse]
|-----------------|--------------------|-----------------|--------------------||-7-7-7-7-7-7-7-7-|-7-7-7-7-7-10-10-10-|-----------------|--------------------||-----------------|--------------------|-9-9-9-9-9-9-9-9-|-9-9-9-9-9-11-11-11-||-----------------|--------------------|-----------------|--------------------||-----------------|--------------------|-----------------|--------------------||-----------------|--------------------|-----------------|--------------------|
|-----------------|-----------------|-----------------|-----------------||-----------------|-----------------|-----------------|-----------------||-7-7-7-7-7-7-7-7-|-7-7-7-7-7-7-7-7-|-6-7-6-7-6-7-6-7-|-6-7-6-7-6-7-6-7-||-----------------|-----------------|-----------------|-----------------||-----------------|-----------------|-----------------|-----------------||-----------------|-----------------|-----------------|-----------------|
|-----------------|--------------------|-----------------|--------------------||-7-7-7-7-7-7-7-7-|-7-7-7-7-7-10-10-10-|-----------------|-----------10-10-10-||-----------------|--------------------|-9-9-9-9-9-9-9-9-|-9-9-9-9-9----------||-----------------|--------------------|-----------------|--------------------||-----------------|--------------------|-----------------|--------------------||-----------------|--------------------|-----------------|--------------------|
|-------------------------|-------------------------||-10-12-12-12-12-12-12-12-|-12-12-12-12-12-12-12-12-||-------------------------|-------------------------||-------------------------|-------------------------||-------------------------|-------------------------||-------------------------|-------------------------|
|-------------------------|-------------------------||-12-15-15-15-15-15-14-14-|-14-14-14-14-14-14-14-14-||-------------------------|-------------------------||-------------------------|-------------------------||-------------------------|-------------------------||-------------------------|-------------------------|
[Pre-Chorus]
|-------------------------|-------------------------||-12-12-12-12-12-12-12-12-|-12-12-12-12-12-12-15-15-||-------------------------|-------------------------||-------------------------|-------------------------||-------------------------|-------------------------||-------------------------|-------------------------|
|-------------------------|-------------------------||-15-15-15-15-15-15-14-14-|-14-14-14-14-14-14-14-14-||-------------------------|-------------------------||-------------------------|-------------------------||-------------------------|-------------------------||-------------------------|-------------------------|
|-------------------------|-------------------------||-12-12-12-12-12-12-12-12-|-12-12-12-12-12-12-15-15-||-------------------------|-------------------------||-------------------------|-------------------------||-------------------------|-------------------------||-------------------------|-------------------------|
|-------------------12-12-|-12-12-12-12-12-12-12-12-||-15-15-15-15-15-15-------|-------------------------||-------------------------|-------------------------||-------------------------|-------------------------||-------------------------|-------------------------||-------------------------|-------------------------|
[Chorus]
|-------12----12----------|-------12----12----------||-------------------------|-------------------------||----11----11----11----11-|----11----11----11----11-||-------------------------|-------------------------||-10----------------10----|-10----------------10----||-------------------------|-------------------------|
|-------14----14----------|-------14----14----------||-------------------------|-------------------------||----11----11----11----11-|----11----11----11----11-||-------------------------|-------------------------||-14----------------14----|-14----------------14----||-------------------------|-------------------------|
|-------12----12----------|-------12----12----------||-------------------------|-------------------------||----11----11----11----11-|----11----11----11----11-||-------------------------|-------------------------||-10----------------10----|-10----------------10----||-------------------------|-------------------------|
|-------14----14----------|-------14----14----------||-------------------------|-------------------------||----11----11----11----11-|----11----11----11----11-||-------------------------|-------------------------||-14----------------14----|-14----------------14----||-------------------------|-------------------------|
[Bridge]
|---------|--------------------|---------|--------------------||---------|--------------------|---------|--------------------||---------|-------12--------14-|---------|-------12--------14-||-9--\--5-|----12--------12----|-9--\--5-|----12--------12----||-9--\--5-|-10--------10-------|-9--\--5-|-10--------10-------||-7--\--3-|--------------------|-7--\--3-|--------------------|
|-7/10-----|-7/10-----|---------|--------||------7p5-|------7p5-|---------|--------||----------|----------|-6h7p6---|-----11-||----------|----------|-------7-|-7h9----||----------|----------|---------|--------||----------|----------|---------|--------|
[Outro]
|----2--2------2--2-----2-|----5--5------5--5-----5-||---0---------0--------0--|---3---------3--------3--||-------------------------|-------------------------||-------------------------|-------------------------||-2---------2---------2---|-5---------5---------5---|
|-------------------------|-----------------------------||----7--7------7--7-----7-|-----10--10-----10--10----10-||---5---------5--------5--|----8----------8---------8---||-------------------------|-----------------------------||-------------------------|-----------------------------||-7---------7---------7---|-10----------10--------10----||-------------------------|-----------------------------|
_________________________________________________ [GUITAR 3] [Pre-Chorus]
|----------------------|-------------------------||----------------------|-------------------------||-----------11-14---11-|-------------11-14-------||-0-11-12-0-------14---|-14-12-14-12-------14-12-||----------------------|-------------------------||----------------------|-------------------------|
[Verse]
|-17-14-15-12-14-10-12----|-------------------------||----------------------14-|-15-12-14-10-12----------||-------------------------|----------------12-14-11-||-------------------------|-------------------------||-------------------------|-------------------------|
|----------------------|----------------12-14-||----------------------|-----------12-15------||-12-9-11----9---------|------9-11------------||---------12---11-12-9-|-9-12-----------------||----------------------|----------------------|
[Bridge]
|--------------10-|-----------------<7>-||------------12---|--------<12>-<7>-----||----------11-----|---------------------||-----------------|---------------------||-----------------|---------------------||-----------------|---------------------|
Tap to rate this tab
 
# A B C D E F G H I J K L M N O P Q R S T U V W X Y Z