Sarcophagus – Cast From Fire tab

#----------------------------------PLEASE NOTE---------------------------------#
#This file is the author's own work and represents their interpretation of the #
#song. You may only use this file for private study, scholarship, or research. #
#------------------------------------------------------------------------------#

CAST FROM FIRE
As recorded by Sarcophagus



Transcribed by Mike Dickson

 Words and Music by Mike Dickson
Arranged by Mike Dickson
 

Gtr I (A E A D F# B) - 'Untitled'


4/4 Gtr I PM PM PM 4x|---------------------------------------||----||--------------------------------------o||----||------------------------8-8-8-8-8-8-8--||----||---------------------------------------||----||------------------------6-6-6-6-6-6-6-o||----||-6b8p=0--3b5p=0--5b7p=0----------------||----|
|--------------------|--------||--------------------|--------||--------------------|--------||--------------------|--------||-0-0-0-0-----0------|-0-0----||-0-0-0-0-3b6-0-12-0-|-0-0----|
|-----------------------------------------||-----------------------------------------||-3--------5--------8---------------------||-----------------------------------------||-5b7------3b5------6b8----8-8-8-8-8-8----||-------0--------0-------0-8-8-8-8-8-8----|
4x|----------------------------------------------||----||---------------------------------------------o||----||----------------------------------------------||----||----------------------------------------------||----||-------0--0-------0--0-------0--0-------0--0-o||----||-12-0--0--0-10-0--0--0-13-0--0--0-10-0--0--0--||----|
|----------||----------||----------||----------||----------||-15\-0----|
|----------------------------------||----||---------------------------------o||----||-14------12------15------12-------||----||----------------------------------||----||-12------10------13------10------o||----||----------------------------------||----|
|------------------------------------------||-------6---6---6p3---3h6p3h6p3---3h6p3----||-5b7=====7---5-----5-----------5----------||------------------------------------------||------------------------------------------||------------------------------------------|
|-6b8-6b8-6b8r6-6p3---3-|------------||-------------------6---|-6p3h6p3----||-----------------------|------------||-----------------------|------------||-----------------------|------------||-----------------------|------------|
|------------------------------------------||---3--------------------------------------||-5---5p3-5b7r5-5p3h5p3-5b7r5-5p3h5p3------||-------------------------------------5----||------------------------------------------||------------------------------------------|
|-13b17-10h13p10-13b17----||-------------------------||-------------------------||-------------------------||-------------------------||-------------------------|
|-18p15p13h15h18p15h18p15p13h15h18p15-18b20=====||-----------------------------------------------||-----------------------------------------------||-----------------------------------------------||-----------------------------------------------||-----------------------------------------------|
|-18pb20==18b20r===13----13----||---------------15----15-------||------------------------------||------------------------------||------------------------------||------------------------------|
-------------------------------------------------------------------------------- Tablature Legend ---------------- h - hammer-on p - pull-off b - bend pb - pre-bend r - bend release (if no number after the r, then release immediately) /\ - slide into or out of (from/to "nowhere") s - legato slide S - shift slide - natural harmonic [n] - artificial harmonic n(n) - tapped harmonic ~ - vibrato tr - trill T - tap TP - trem. picking PM - palm muting \n/ - tremolo bar dip; n = amount to dip \n - tremolo bar down n/ - tremolo bar up /n\ - tremolo bar inverted dip = - hold bend; also acts as connecting device for hammers/pulls <> - volume swell (louder/softer) x - on rhythm slash represents muted slash o - on rhythm slash represents single note slash Misc Legend ----------- | - bar || - double bar ||o - repeat start o|| - repeat end *| - double bar (ending) : - bar (freetime) $ - Segno & - Coda Tempo markers - = BPM(8/16=s8/s16), where s8 = swing 8ths, s16 = swing 16ths -------------------------------------------------------------------------------- ** Generated using Power Tab Editor by Brad Larsen: The Official Power Tab Web Site
Please rate this tab:
x1.0