Satellite - Say The Words tab

---------------------------------------------------------------------------
                         Satellite - Say The Words
---------------------------------------------------------------------------
Satellite official website: http://www.satellite-music.com/

Tabbed by: gopper
Tuning: Standard


********************************************Used chords: * * A E Esus4 Bm Em Bb *|e|0------0------0------2------0------1-| *|B|2------0------0------3------0------3-| *|G|2------1------2------4------0------3-| *|D|2------2------2------4------2------3-| *|A|0------2------2------2------2------1-| *|E|-------0------0-------------0--------| * *********************************************
Verse: (00:07) A Plastic guides surrounded by a Esus4 E Bm suicidal urge to lose control now A and let this go A You paralized are trying just to
9~-----|10~----|9~-----|-------|-------|-------|
Esus4 E Bm Find a way to learn to sleep alone now
7~----------------------------9~-------|10~---------------------------10~------|9~----------------------------7~-------|---------------------------------------|---------------------------------------|---------------------------------------| AThat you're on your own
--------------------7~-----------|--------------------10~------10~-|--------------------9~-----------|---------------------------------|---------------------------------|---------------------------------|
Chorus: (00:49) A Em Say the words, say the words out loud Bm A Let them out of your soul Verse: (01:10) A Esus4 And as it is your hidden underneath this fight
-----------------------------------|10~---------------------------10~--|9~----------------------------9~---|7~----------------------------9~---|-----------------------------------|-----------------------------------|
E Bm A But sinking like a stone alone so far below
-------------------9~-------------------7~-----7~------------|----9~-------------10~------------------10~--------10~---10~-|-------------------7~-------------------9~-------------------|-------------------------------------------------------------|-------------------------------------------------------------|-------------------------------------------------------------|
A Esus4 The streets are paved with black and yellow lines
9------9------9-----9------9------9---------7------7------7------|--10-----10-----10----10-----10-----10---------10----10-----10---|-----9------9------------9------9-----------------9-----9--------|-----------------------------------------------------------------|-----------------------------------------------------------------|-----------------------------------------------------------------|
E Bm That never lead you back to home love
7------7------7-------------9------9------9-----|--10-----10-----10------------10-----10-----10--|-----9------9--------------------7------7-------|------------------------------------------------|------------------------------------------------|------------------------------------------------|
A 'Cause you're on your own
9------9------9-------10------10------10----9------9------9----|--10-----10-----10-------10------10------10---10-----10-----10-|-----7------7---------------9-------9------------9------9------|---------------------------------------------------------------|---------------------------------------------------------------|---------------------------------------------------------------|
Chorus: (01:52) A Em Say the words, say the words out loud Bm A Let them out of your soul A We build our dreams Em And then burned them down Bm To the ground A Till their gone Bridge: (02:34) We gotta find a way to love again
(Bm) (Bb) (A)------------------------------------------------|--3---3---3---3---3---3---3---3---2---2---2---2-|--4---4---4---4---3---3---3---3---2---2---2---2-|------------------------------------------------|2---2---2---2---1---1---1---1---0---0---0---0---|------------------------------------------------|
While the words are still there ringing in our heads
(Bm) (Bb) (A)------------------------------------------------|--3---3---3---3---3---3---3---3---2---2---2---2-|--4---4---4---4---3---3---3---3---2---2---2---2-|------------------------------------------------|2---2---2---2---1---1---1---1---0---0---0---0---|------------------------------------------------|
The prophets sang the anthems left for dead
(Bm) (Bb) (A) /Play along the power chords/------------------------------------------------|--3---3---3---3---3---3---3---3---2---2---2---2-|--4---4---4---4---3---3---3---3---2---2---2---2-|------------------------------------------------|2---2---2---2---1---1---1---1---0---0---0---0---|------------------------------------------------|
While the words are still there
(Bm)--------------------------------|--3---3---3---3---3---3---3---3-|--4---4---4---4---4---4---4---4-|--------------------------------|2---2---2---2---2---2---2---2---|--------------------------------|
They're ringing they're ringing in
(Bb)--------------------------------|--3---3---3---3---3---3---3---3-|--3---3---3---3---3---3---3---3-|--------------------------------|1---1---1---1---1---1---1---1---|--------------------------------|
Second Chorus: (03:15) A E We gotta find a way to love again Bm While the words are ringing in my head A They're ringing in my head A E The prophets sang the anthems left for dead Bm While the words are ringing in my head A They're ringing in my head (03:57) A Em Say the words, say the words out loud
|e|---7~--| |B|---8~--| |G|---9~--| |D|-------| |A|-------| |E|-------| Bm ALet them out of your soul
|e|------9~----------5~---||B|------7~----------5~---||G|------7~----------6~---||D|------------------7~---||A|-----------------------||E|-----------------------|
Tap to rate this tab
 
# A B C D E F G H I J K L M N O P Q R S T U V W X Y Z