Satyricon - In The Mist By The Hills tab

  Visit MetalTabs.com for more metal tablature

                  SATYRICON - In the Mist by the Hills

				16.10.2001

Listen to the song for better timings. Transcription by J.Tervo, Jatbeast@hotmail.com.
This tab should be complete, but comments and corrections are always welcome.
Transcribed with the basic settings, EADGBe. Http://www.come.to/blackmoon


Riff 1

---------------------------------------------------------4--------0-----0------4-----4--2-----4---4--2------------------------------------------------
Riff 2
----------------------------------------------------------------------------------6-66-7-4/7-6-------6-66-7-4/7----4-44-4-44-5-2/5-4--4-44-4-44-5-2/5-3--2-22---------------2-22------------1---------------------------------------
Riff 3
----------------------------------------------------------------------------------------6-66-7-4/7-6-6------6-66-7-4/7------4-44-4-44-5-2/5-4-4-4-44-4-44-5-2/5-3-3--2-22----------------2-22------------1-1------------------------------------------
Riff 4
----------------------------------------------------------------------------------------6-66-7-4/7-6-6------6-66-7-4/7------4-44-4-44-5-2/5-4-4-4-44-4-44-5-2/5-3----2-22----------------2-22------------1-4----------------------------------------2-
Riff 5
------------------------------------------------------------------------------------------------------------------------------------------------------------------------------------------------------------4-4-------------4-4-------------5-5-------------5-5----------4-4-----4-4-----4-4-----4-4-----5-5-----5-5-----5-5-----5-5--2-2-------------2-2-------------3-3-------------3-3-------------
-------------------------------------------------------------------------------------------------------------------------------------------4-4-----------0-----------------4-4-----------0-0-0-0-0------4-4-----4-4-2-2-4---4-4-4-4-----4-4-----4-4-2-2-4------------2-2-----------------------------2-2----------------------------------------------------------------------------------------------
Riff 6
-----------------------------------------------------------------------------------------999999889999998899999988--------------------9999998899999988999999885555444455559999----7777776677777766777777665555444455559999----------------------------3333222233337777---
Riff 7a
-------------------------------------------------------------------------------------------------------------------------------------9--9--9---------9--9--9---------9--9--9---------9--9--9---------9--9--9--8-8-8--9--9--9--8-8-8--9--9--9--8-8-8--9--9--9--8-8-8--7--7--7---6-6-6-7--7--7---6-6-6-7--7--7---6-6-6-7--7--7---6-6-6------------------------------------------------------------------
Riff 8
-------------------------------------------------------------------------------------------------------------------------------9--9--9--8--9--9--9--8--9--9--9--8--------------------4--4---9--9--9--8--9--9--9--8--9--9--9--8---5--5--4--4--5--5-4--4---7--7--7--6--7--7--7--6--7--7--7--6---5--5--4--4--5--5-2--2----------------------------------------3--3--2--2--3--3---------
Riff 7b
-------------------------------------------------------------------------------------------------------------------------------------------------------9--9--9---------9--9--9---------9--9--9---------------------------4--4---9--9--9--8-8-8--9--9--9--8-8-8--9--9--9--8-8-8---5--5--4--4--5--5-4--4---7--7--7---6-6-6-7--7--7---6-6-6-7--7--7---6-6-6--5--5--4--4--5--5-2--2----------------------------------------------------3--3--2--2--3--3---------
Riff 9
---------------------------------------------------------------------------------------------------------------------------------------------------------------1212121211111212--------1212121211111212--77777777101010109-9-101077777777101010109-9-1010--00000000----------------00000000-----------------
-------------------------------------------------------------------------------------------------------------------------------------------------------------------1010101099101012121212111112125555777710101010991010--8-8-8-8-778-8-101010109-9-1010333355558-8-8-8-778-8--------------------------------------------------------
Riff 10
------------------------------------------------------------------------------------------------------------------------------------------------------------------------------------------------------------------------------------12121212111179--------12121212111179-----------------------------77777777101010109-9-5777777777101010109-9-57101010101010101099991010910--00000000--------------00000000--------------8-8-8-8-8-8-8-8-77778-8-7-8-
Riff 11
---------------------------------------------------------------------------------------1010101099--7--------------------007777----------10---0077778888------00-------------------00----------8878----------------------------------------
Riff 12
--------------------------------------------------------------------------------------------------------4-4-5-5-2-2-4-4-5-2-4-4------2-2-------------------------3-3----------------------------------
Playorder: Riff 1x10 Riff 2x2 Riff 3x4 Riff 2x2 (bass plays like in riff 3) Riff 3x2 Riff 2x2 (bass plays like in riff 3) Riff 4x4 Riff 5x4 Riff 6x6 Riff 7ax1 Riff 8x3 Riff 7bx2 Riff 8x2 Riff 6x4 Riff 9x2 Riff 10x2 Riff 11x6 Riff 12x10 Riff 1x8
Tap to rate this tab
 
# A B C D E F G H I J K L M N O P Q R S T U V W X Y Z