Commando tab with lyrics by Satyricon - Easy chords and tabs for guitar

Satyricon – Commando tab

tune D

. = palm mute

godd*mn.. finally done:D i think u can convince people that ur playing commando by with this tab,send any correction to aap_noot_apenoot@hotmail.com or just tell me if u like it.. or not :@-----------------------------------------------------------------------|-----------------------------------------------------------------------|-----------------------------------------------------------------------|-----------------------------------------------------------------------|----------1/2-2-----------1/2-2-----------1/2-2-----------2-2-5-5-5-5--|0-0-0-0-0-------0-0-0-0-0-------0-0-0-0-0-------0-0-0-0-0--------------| x2
----------------------------------------------------------------|----------------------------------------------------------------|----------------------------------------------------------------|----------------------------------------------------------------|----------1/2-2-----------1/2-2-----------1/2-2-----------5-4-3-|0-0-0-0-0-------0-0-0-0-0-------0-0-0-0-0-------0-0-0-0-0-3-2-1-|
-----------------------------------------------------------------------|-----------------------------------------------------------------------|-----------------------------------------------------------------------|-----------------------------------------------------------------------|----------1/2-2-----------1/2-2-----------1/2-2-----------2-2-5-5-5-5--|0-0-0-0-0-------0-0-0-0-0-------0-0-0-0-0-------0-0-0-0-0--------------| x2
----------------------------------------------------------------|----------------------------------------------------------------|----------------------------------------------------------------|----------------------------------------------------------------|----------1/2-2-----------1/2-2-----------1/2-2-----------5-4-3-|0-0-0-0-0-------0-0-0-0-0-------0-0-0-0-0-------0-0-0-0-0-3-2-1-|
------------------------------------|------------------------------------|------------------------------------|5----5/6\5----6/7-5----5/6\5-8\6/9--|------------------------------------|3----3/4\3----4/6-3----3/4\3-6\4/7--| x2
----------------------------------|----------------------------------|---------4-----3-----------3------|3/4---4----5-4---3/4---4---1-3-3--|1/2---2----------1/2---2-----1-1--|----------------------------------| x4
----------------------------------|----------------------------------|----------------------------------|3/4---4--4-----3-3/4---4----------|1/2---2----5-1---1/2---2-2--------|---------------------------2-2-3--| x2
--------------------------|--------------------------|-------------------3------|3/3--4---------3/4-1-3-3--|1/2--2-2-----1-1/2---1-1--|---------3-0--------------| x2
----------------------------------|----------------------------------|----------------------------------|3/4---4--4-----3-3/4---4----------|1/2---2----5-1---1/2---2-2--------|---------------------------2-2-3--| x2
- - - - 2 0 < this is the hard part of the song
-------------------------------|-------------------------------|-------------------------------|4/5\4-4-------4/5\4-4----------|2/3\2-2-5-3-6-2/3\2-2-6-5-9-8--|-------------------------------| x2
-------------------------------|-------------------------------|-------------------------------|4--4/5\4--5/7--4--4/5\4-7\5/8--|-------------------------------|2--2/3\2--3/5--2--2/3\2-5\3/6--| x4
----------------------------------|----------------------------------|---------4-----3-----------3------|3/4---4----5-4---3/4---4---1-3-3--|1/2---2----------1/2---2-----1-1--|----------------------------------| x2
--------------------------|--------------------------|-------------------3------|3/3--4---------3/4-1-3-3--|1/2--2-2-----1-1/2---1-1--|---------3-0--------------| x2
----------------------------------|----------------------------------|----------------------------------|3/4---4--4-----3-3/4---4----------|1/2---2----5-1---1/2---2-2--------|---------------------------2-2-3--| x2
- - - - 2
-------------------------------|-------------------------------|-------------------------------|4/5\4-4-------4/5\4-4----------|2/3\2-2-5-3-6-2/3\2-2-6-5-9-8--|-------------------------------| x2
------------------------------|------------------------------|------------------------------|4--4/5\4--5/7--4--4/5\4-7\5/8-|------------------------------|2--2/3\2--3/5--2--2/3\2-5\3---|6 x4 let the last note ring the 4th time u play it
-------------------------------------------|-------------------------------------------|----------------------------------------9--|9--12--11-10--9\8--11/12-9--12--11-10-8-8--|----------------------------------------7--|7--10--9--8---7\6--9-/10-7--10--9--8--6-6--| x2. . . . . . . . .
-------2-----1------------------|---------3----------------------|-----------4--------------------|3/4-4----------3/4-5-4----------|1/2------------1/2-----4-4-4-5--|-----------------------2-2-2-3--| x2
-------------------------------|-------------------------------|-------------------------------|4--4/5\4--5/7--4--4/5\4-7\5/8--|-------------------------------|2--2/3\2--3/5--2--2/3\2-5\3/6--| x4
-----------------------------------------------------------------------|-----------------------------------------------------------------------|-----------------------------------------------------------------------|-----------------------------------------------------------------------|----------1/2-2-----------1/2-2-----------1/2-2-----------2-2-5-5-5-5--|0-0-0-0-0-------0-0-0-0-0-------0-0-0-0-0-------0-0-0-0-0--------------| x2
----------------------------------------------------------------|----------------------------------------------------------------|----------------------------------------------------------------|----------------------------------------------------------------|----------1/2-2-----------1/2-2-----------1/2-2-----------5-4-3-|0-0-0-0-0-------0-0-0-0-0-------0-0-0-0-0-------0-0-0-0-0-3-2-1-|
-----------------------------------------------------------------------|-----------------------------------------------------------------------|-----------------------------------------------------------------------|-----------------------------------------------------------------------|----------1/2-2-----------1/2-2-----------1/2-2-----------2-2-5-5-5-5--|0-0-0-0-0-------0-0-0-0-0-------0-0-0-0-0-------0-0-0-0-0--------------| x2
----------------------------------------------------------------|----------------------------------------------------------------|----------------------------------------------------------------|----------------------------------------------------------------|----------1/2-2-----------1/2-2-----------1/2-2-----------5-4-3-|0-0-0-0-0-------0-0-0-0-0-------0-0-0-0-0-------0-0-0-0-0-3-2-1-|
Please rate this tab:
x1.0