Satyricon - Forhekset tab

FORHEKSET

By Satyricon

>From the Album Nemisis Divina

Transcribed by Andrew Anton

(Clean)|-----------------------------------||-----------------------------------||-----------------------------------||------2--------2--------0----------||---2--------3--------0--------0--1-||0--------0--------1--------3-------|
|-----------------------------------||-----------------------------------||-----------------------------------||----5555----5555----5555-----------||----3333----6666----3333-----------||0000----0000----0000----0000443311-|
|-----0------------0-----------0---------------------||-----0------------0-----------0---------------------||-----0------------0-----------0---------------------||-2-------3-2-3-2-----3-2-3-2-----3-2--6-6/5-5-5/3-3-||-2-------3-2-3-2-----3-2-3-2-----3-2--6-6/5-5-5/3-3-||-0-------1-0-1-0-----1-0-1-0-----1-0--4-4/3-3-3/1-1-|
|-------------------------------------------------------||-------------------------------------------------------||-------------------------------------------------------||-\9--9/8--8--8/5--5--5/4--4-\9--9/8--8--8/5--5--5/4--4-||-\7--7/6--6--6/3--3--3/2--2-\7--7/6--6--6/3--3--3/2--2-||-------------------------------------------------------|
|---------------------------------------------------||---------------------------------------------------||---------------------------------------------------||-\9--9/8--8--8/5--5--5/4--4-\9--9/8--8--8/5--5--\7-||-\7--7/6--6--6/3--3--3/2--2-\7--7/6--6--6/3--3--\5-||-\7--7/6--6--6/3--3--3/2--2-\7--7/6--6--6/3--3--\5-|
|-----------------------------------||-----------------------------------||-----------------------------------||-----------------------------------||-7---7h8-5h8-7----------7--------6-||----------------00000000-00000000--|
|------------------------------------------------||------------------------------------------------||------------------------------------------------||----9----10-9-7-10-9------9999----10-9-7-10-----||----7-----8-7-5--8-7-10-9-7777-----8-7-5--8-7-6-||0000-0000-------------8-7-----0000----------5-4-|
|----------------------------------------------------|----------------------------------------------------|----------------------------------------------------|----------------------------------------------------|-2-2-3----------2-2--2---4-5-4--2-2-3---------4--4-4|-0-0---0-3-5-3--0-0--0-0-2-2-2--0-0---0-3-5-3-2--2-2
|-----------------||-----------------||-----------------||-----------------||---------2-------||-5-2-4-5---4-5-1-|
|---------------------------------||---------------------------------||---------------10--6-------------||------10--------8---7---8--8--8/-||-2--2--8--2--2-------8--8--8--8/-||-0--0-----0--0----------7--7--6/-|
|------------------------------------------------------------||------------------------------------------------------------||------------------------------------------------------------||-------------------------------------------------7--7\11--9-||-2-2--3-3--------2-2--3-3--------2-2--3-3--------5--5\9---7-||-0-0------3-0--3-0-0------3-0--3-0-0------3-0--3------------|
(Clean)|------------------------------------------------------------|------------------------------------------------------------|-------4-4-2---------------4-4-2---------------4-4-2--------|-2--2--------5-4--5--2--2--------5-4--5--2--2--------5-4--5-|------------------------------------------------------------|------------------------------------------------------------
|-------------||-------------||-------------||-0--0-2-4--2-||-------------||-------------|
Tap to rate this tab
 
# A B C D E F G H I J K L M N O P Q R S T U V W X Y Z