Satyricon – Prime Evil Renaissance tab

SATYRICON

Prime Evil Renaissance
Album: Rebel Extravaganza


Intro 1 (2 times)

---------------------------------|---------------------------------|---------------------------------|---------------------------------|---------------------------------|---------10--9-------------------|-----9---------------9-8-9---10--|-10--9---------------9-----------|-----7---------------7-6-7---8---|---------------------7-----------|-0---------------0---------------|-----------------0---------------|
---------------------------------|---------------------------------|---------------------------------|---------------------------------|---------------------------------|---------------------5---4-------|-----9-8-9---4---5-8-----9-------|---------9-8-9---5-----------5---|-----7-6-7---2---3-6-----7-------|---------7-6-7---3---------------|-0-------------------0-----------|-----0---------------------------|
---------------------------------|---------------------|---------------------------------|---------------------|---------------------------------|-5---4---------------|-----9---------------9-8-9---5---|---------5---4-------|-----7---------------7-6-7---3---|---------3---2---3---|-0---------------0---------------|-----------------1---|
Intro 2 (4 times)
---------------------------------|---------------------------------|---------------------------------|-----9-----8-9-------3---4---5-8-|-----7-----6-7-------1---2---3-6-|-0-------0-------0---------------|
Intro 3 (4 times)
---------------------------------|---------------------------------|---------------------------------|-----9-----9-10------9-----5-9---|-----7-----7-8-------7-----3-6---|-0-------0-------0-------0-------|
Riff 1 (8 times)
---------------------------------|--------------------------------|---------------------------------|----------h--p------------------|---------------------------------|---------9-10-9--h--p-----------|-----9-----9-10------9-----5-9---|-----9----------9-10-9--h--p----|-----7-----7-8-------7-----3-6---|-----7-----------------9-10-9---|-0-------0-------0-------0-------|-0------------------------------|
Riff 2 (2 times)
---------------------------------|---------------------------------|---------------------------------|---------------------------------|---------------------------------|---------------------------------|---------------------------------|---------------------------------|-7---7-7-7---7-7-7---2-2-2---3-3-|-3---6-6-6---6-6-6---3-3-3---3-3-|-5---5-5-5---5-5-5---0-0-0---1-1-|-1---4-4-4---4-4-4---1-1-1---1-1-|
---------------------------------|---------------------------------|---------------------------------|---------------------------------|---------------------------------|---------------------------------|---------------------------------|---------------------------------|-7---7-7-7---7-7-7---2-2-2---3-3-|-1---6-6-6---6-6-6---6-6-6-------|-5---5-5-5---5-5-5---0-0-0---1-1-|-1---4-4-4---4-4-4---4-4-4-------|
Riff 3 (4 times)
----------------------------------|----------------------------------|----------------------------------|-----9-----9-10------12--12-12--6-|-----7-----7-8-------10--8--10--4-|-0-------0-------0----------------|
Riff 4 (2 times)
-----------------------------------|-----------------------------------|--------------------------p--------|-----------8---10-------10-8-------|-0-----0-0---0--------0------9-----|-----------------------------------|
Riff 5 (8 times)
-----------------------------------|-------------------------p---------|------------------------8-6--------|---7-7---7-8---10------------------|-0-----0-----0--------0-----9------|-----------------------------------|
Riff 2 (2 times) Riff 6a
---------0-----------------------|---------------------------------|---------0-----------------------|---------------------------------|---------0-----------------------|---------------------------------|-2-------2---2---2-------2---2---|-2---3-------3---3---6-------6---|-2-----------2---2-------2---2---|-2---3-------3---3---6-------6---|-0-----------0---0-------0---0---|-0---1-------1---1---4-------4---|
---------------------|---------------------|---------------------|-6---3-------3---3---|-6---3-------3---3---|-4---1-------1---1---|
Riff 6b (2 times)
---------0-----------------------|-----------------------------|---------0-----------------------|-----------------------------|---------0-----------------------|-----------------------------|-2-------2---2---2-------2---2---|-3-------3---3---6-------6---|-2-----------2---2-------2---2---|-3-------3---3---6-------6---|-0-----------0---0-------0---0---|-1-------1---1---4-------4---|
---------------------|---------------------|---------------------|-6---3-------3---3---|-6---3-------3---3---|-4---1-------1---1---|
Riff 6c
---------0-----------------------|-----------------------------|---------0-----------------------|-----------------------------|---------0-----------------------|-----------------------------|-2-------2---2---2-------2---2---|-3-------3---3---6-------6---|-2-----------2---2-------2---2---|-3-------3---3---6-------6---|-0-----------0---0-------0---0---|-1-------1---1---4-------4---|
Riff 1 (8 times) Riff 2 (2 times) Riff 7 (8 times)
-------------0-------------------|-------------0-------------------|-------------0-------------------|-2-----------2---2---------------|-2---------------2---------------|-0---------------0---------------|
Riff 6 Riff 5 (6 times) Riff 4 (2 times)
Please rate this tab:
x1.0