Savage Messiah – Insurrection Rising tab

#----------------------------------PLEASE NOTE---------------------------------#
#This file is the author's own work and represents their interpretation of the #
#song. You may only use this file for private study, scholarship, or research. #
#------------------------------------------------------------------------------##
                          Insurrection Rising
                           By Savage Messiah

       From the album Insurrection Rising (c) Candlelight Records 2009

www.earacherecords.com
www.savagemessiah.net
www.facebook.com/savagemessiahmetal
www.twitter.com/savagemessiah
www.youtube.com/savagemessiahmetal



Notation Legend.-
       % = repeat last bar
       / = slide up
       \ = slide down
       . = palm mute
       p = pull off
       h = hammer on
       /\/\/\ = vibrato (it's up to you if you want to use the bar or not)
       b«   = bend half step or equivalent
       pb«  = pre-bend
       br«  = bend and release
       pbr« = pre-bend and release

Tuning: C#, G#, c#, F#, A#, D#


   Fast Rock = 180bpm

Intro: 1. 2. |----------------------------------------------------|----------------|----------------| |----------------------------------------------------|----------------|----------------| |----------------------------------------------------|----------------|----------------| |--h-p-p------------h-p-p------------h-p-p-----------|----------------|----------------| |-3-5-3-0---5------3-5-3-0---6------3-5-3-0---5------|-6---5----3-5-6-|-6---5----3-5-6-| |---------0---0000---------0---0000-------------0000-|---0---00-------|-6-0-5-00-3-5-6-|
Verse:
|---------------------------------------------------------------| |---------------------------------------------------------------| |---------------------------------------------------------------| |--------------------------p----------------------8----7----5/7-| |---------6---------------6-5-------------6-------6----5----3/5-| |-0-000-0-6-0-0-000-000-0-6-5-0-000-000-0-6-0-0-00--000--000----|
----------------------------------------------------------------| ----------------------------------------------------------------| ----------------------------------------------------------------| --------------------------h-------------------------------------| ---------6---------------3-5-------------6-------6----5-----3/5-| -0-000-0-6-0-0-000-000-0-3-5-0-000-000-0-6-0-0-006-0005--0003/5-|
Bridge:
|-------------------------------------------------------------------| |-------------------------------------------------------------------| |-------------------------------------------------------------------| |-------------------------------------------------------------------| |---3-5---3-5---3-6---3-5---3-5-----3-5---3-5---3-6---3-5---3-5~----| |-0-----0-----0-----0-----0-----0-0-----0-----0-----0-----0---------|
|---------------------------------------------------------| |---------------------------------------------------------| |---------------------------------------------------------| |-------------------------------------------------10--8---| |---3-5---3-5---3-6---3-5---3-5-----3-5---3-5-----8---6---| |-0-----0-----0-----0-----0-----0-0-----0-----0-0---------|
Chorus:
|-----------------------------------------------------------------| |-----------------------------------------------------------------| |-----------------------------------------------------------------| |---------5/7-------------8\5-------------5/7-----8-----7-----5/3-| |---------3/5-------------6\5-------------3/5-----6-----5-----3/5-| |-000-000-----0-0-000-000-----0-0-000-000-----0-0---0-0---0-0-----|
|-----------------------------------------------------------------| |-----------------------------------------------------------------| |-----------------------------------------------------------------| |---------5/7-------------8\5-------------5/7---------------------| |---------3/5-------------6\5-------------3/5-----0---------------| |-000-000-----0-0-000-000-----0-0-000-000-----000-0---------------|
Middle 8:
|--------------------------------------------------------------| |--------------------------------------------------------------| |------------------h-p----------------------------h-p----------| |---------------5-4-5-4------h-----------------5-4-5-4-----5---| |-------p---------------6---3-5--------p---------------6---3---| |-0000-1-0-0-00-----------0------0000-1-0-0-00-----------0-----|
Solo 1:
|------------------------------------------| |------------------------------------------| |------------------------------------------| |----5---3---------------5---3-------------| |-0--3---1---3---2---0---3---1-------------| |-0----------3---2---0-----------000000000-|
Solo 2:
|-------------------------------------------------------| |-------------------------------------------------------| |-------------------------------------------------------| |-------------------------------------------------------| |-------p---------------------------p-----------------6-| |-0000-3-0-0-00-3-5-0-3-5-6-3-0000-3-0-0-00-3-5-0-3-5-6-|
Verse:
|---------------------------------------------------------------| |---------------------------------------------------------------| |---------------------------------------------------------------| |--------------------------p----------------------8----7----5/7-| |---------6---------------6-5-------------6-------6----5----3/5-| |-0-000-0-6-0-0-000-000-0-6-5-0-000-000-0-6-0-0-00--000--000----|
----------------------------------------------------------------| ----------------------------------------------------------------| ----------------------------------------------------------------| --------------------------h-------------------------------------| ---------6---------------3-5-------------6-------6----5-----3/5-| -0-000-0-6-0-0-000-000-0-3-5-0-000-000-0-6-0-0-006-0005--0003/5-|
Bridge:
|-------------------------------------------------------------------| |-------------------------------------------------------------------| |-------------------------------------------------------------------| |-------------------------------------------------------------------| |---3-5---3-5---3-6---3-5---3-5-----3-5---3-5---3-6---3-5---3-5~----| |-0-----0-----0-----0-----0-----0-0-----0-----0-----0-----0---------|
|---------------------------------------------------------| |---------------------------------------------------------| |---------------------------------------------------------| |-------------------------------------------------10--8---| |---3-5---3-5---3-6---3-5---3-5-----3-5---3-5-----8---6---| |-0-----0-----0-----0-----0-----0-0-----0-----0-0---------|
Chorus:
|-----------------------------------------------------------------| |-----------------------------------------------------------------| |-----------------------------------------------------------------| |---------5/7-------------8\5-------------5/7-----8-----7-----5/3-| |---------3/5-------------6\5-------------3/5-----6-----5-----3/5-| |-000-000-----0-0-000-000-----0-0-000-000-----0-0---0-0---0-0-----|
|-----------------------------------------------------------------| |-----------------------------------------------------------------| |-----------------------------------------------------------------| |---------5/7-------------8\5-------------5/7---------------------| |---------3/5-------------6\5-------------3/5-----0---------------| |-000-000-----0-0-000-000-----0-0-000-000-----000-0---------------|
Outro: 1. 2. |----------------------------------------------------|----------------|----------------| |----------------------------------------------------|----------------|----------------| |----------------------------------------------------|----------------|----------------| |--h-p-p------------h-p-p------------h-p-p-----------|----------------|----------------| |-3-5-3-0---5------3-5-3-0---6------3-5-3-0---5------|-6---5----3-5-6-|-6---5----3-5-6-| |---------0---0000---------0---0000-------------0000-|---0---00-------|-6-0-5-00-3-5-6-|
Please rate this tab:
x1.0