Savatage - Edge Of Thorns tab

--20b-------17-18--18-----|--17~------------------------------|--------------------------|---------13b--13--10---------------|--------------------------|---------------------12r--10h12p10-|--------------------------|-----------------------------------|--------------------------|-----------------------------------|--------------------------|-----------------------------------|
---------------------------------|---------------------------------|--9~-------9--10--12--12b--12p10-|---------------------------------|---------------------------------|---------------------------------|
---------------------------------------------------13-----------|------------10-13p10----10-13p10----10-13p10----10-----10-13p10-|------10-12b---------12b---------12b---------12b----------------|--12------------------------------------------------------------|----------------------------------------------------------------|----------------------------------------------------------------|
---------------13-----------13b---13--10-13p10-|------10-13p10-----10-13p10--------------------|--12b------------------------------------------|-----------------------------------------------|-----------------------------------------------|-----------------------------------------------|
------------------------------------------------|--13p10-----------------------------------------|--------12-12r-10-------------------------------|------------------12-10-------------------------|------------------------12-10----10r-8-10p8-----|------------------------------13----------------|
--13-10----10-------------------------------------------------------------|--------13----13-10-13-10----10-------------------------------------------|--------------------------12----12-10-12-10----10-------------------------|--------------------------------------------12----12-10-12-10----10-------|--------------------------------------------------------------12----12-10-|--------------------------------------------------------------------------|
--------------------|------------------|--------------------|------------------|--------------------|------------------|--10b---------------|------------------|--------------------|------------------|--------------------|------------------|
-----------10-13-10----------------10-13-10----------------10-12-13-12-10-------|--10-12-13----------13-12-10-12-13----------13-12-10-12-13----------------13-12-|--------------------------------------------------------------------------------|--------------------------------------------------------------------------------|--------------------------------------------------------------------------------|--------------------------------------------------------------------------------|
--13b--------------15r|------13--12--13--12----------|------------------------|----------------------|----------------------15--13~-|------------------------|----------------------|------------------------------|------------------------|----------------------|------------------------------|------------------10-12-|----------------------|------------------------------|---------------12-x-----|----------------------|------------------------------|------------------------|
-----------------------------|-----------------------------|-----------------------------|--10~------------------------|--10~------------------------|--10~------------------10----|--10~------12/--x------10----|--10~------12/--x---12-10-12-|-----------12/--x---12-x--12-|-----------12/--x------------|-----------------------------|-----------------------------|
--------------------------------------------------------------------------------|--------------------------------------------------------------------------------|--13-10-------------12-10-------------13-10-------------12-10-------------13-10-|--------12-10-12-10-------12-10-12-10-------12-10-12-10-------12-10-12-10-------|--------------------------------------------------------------------------------|--------------------------------------------------------------------------------|
--------------------|------------------------|-------20-------------|--------------------|------------------------|----------------------|--------------------|--13--------12----10----|--7-------------------|--12~---------------|--x---------x-----x-----|--x--------------0----|--12~---------------|--11--------10----8-----|--5-------------------|--------------------|------------------------|----------------------|
------------------12h13-|--12~-----------15r--13-|--13~-------------------|------------------------|------------------------|------------------------|------------------------|------------------------|------------------------|------------------------|------------------------|------------------------|
--15~-----13p12-13p12----------------|----------------------------------|----------------------13p12----------|----------------------------------|----------------------------12-10/9--|----10--12--12r-10h12p10-9~-------|-------------------------------------|----------------------------------|-------------------------------------|----------------------------------|-------------------------------------|----------------------------------|
----------------------------------------------------------------12h13-13/15~---|----------------------------12-13p12h13----12h13h15p13p12h13h15----------------|--10-12p10-12p10-9h10h12/14-------------14-------------------------------------|-------------------------------------------------------------------------------|-------------------------------------------------------------------------------|-------------------------------------------------------------------------------|
-----13p12-13p12----------13p12-13p12-------------|--15-------------15p13h15-------------13~---------|--------------------------------------------------|--------------------------------------------------|--------------------------------------------------|--------------------------------------------------|
--20b------17--18--18------18p|--17~---15b-15b-15~---------|------------------------------|----------------------------|------------------------------|----------------------------|------------------------------|----------------------------|------------------------------|----------------------------|------------------------------|----------------------------|
Tap to rate this tab
 
# A B C D E F G H I J K L M N O P Q R S T U V W X Y Z