Sayuri Sugawara - Kimi Ga Iku Kara tab

君がいるから( Kimi ga iru kara ) - Sayuri Sugawara
http://sugawarasayuri.jp/

VERSION 0.1
Part : Voice ( Follow the rythm of the music. )

Tabed by : Tydu
Email : Tydugo@gmail.com
Date : 07/03/2011

VERSE---------------------------------------------------------------|---------------------------------------------------------------|-11-9-8-------------------8---11--------------8-9-8------------|--------11--9-------9--11---9------9--11-9-11-------11-9-------|-------------9-------------------------------------------------|---------------------------------------------------------------|
---------------------------------------------------------------|---------------------------------------------------------------|-11--9-8-----------------8---11---------------8-9-8------------|---------11-13-----9--11---9-------9--11-9-11------------------|---------------------------------------------------------------|---------------------------------------------------------------|
---------------------------------------------------------------|---------------------------------------------------------------|-13--11--9-8-9---------11-9-8-6-8----9-8----13---15--11--9--11-|---------------11------------------9---------------------------|---------------------------------------------------------------|---------------------------------------------------------------|
----------------------------------------------------------------|------14-12-----------------------------------------------12-11-|----------------9---9--11-----------8-9-11-12-11-9-8-9-11-------|-13-14--------9---9----------9--11------------------------------|----------------------------------------------------------------|----------------------------------------------------------------|
WWWWWWWWWWWWWWWWWWWWREFRAIN----------------------------------------------------------------|----------------------------------------------------------------|-14-12-10-12-14-----14-15-12-10-12---101112---12-14-15-17-15-14-|---------------12----------------------------10-----------------|----------------------------------------------------------------|----------------------------------------------------------------|
---------------------------------------------------------------|---15-17-13----------------------------------------------------|-14----------14-15-17-14-15-20-19---14-17-15-------12-14-15-12-|-----------------------------------------------12-15-----------|---------------------------------------------------------------|---------------------------------------------------------------|
---------------------------------------------------------------|----13------13-------------------------------------------------|-------1010----10-10-12-10-12-14-15-14-12-10-------------------|----------------------------------------------14-15-17-15------|---------------------------------------------------------------|---------------------------------------------------------------|
WWWWWWWWWWWWWWWWWWWVERSE---------------------------------------------------------------|---------------------------------------------------------------|-11-9-8-----------------8-11---------------8-9-11-13-11--------|--------11-13-9----9-11------11---9-11-9-11--------------------|---------------------------------------------------------------|---------------------------------------------------------------|
---------------------------------------------------------------|----12---------------------------------------------------------|-11---11-------------------8----11-----13-11----16-14-13-11----|-----------9-11-13----9-11----9------9--------9----------------|---------------------------------------------------------------|---------------------------------------------------------------|
------------------------------------------------------------------|------------------------------------------------------------------|-13-11-9-8-9--------8-9-11-8-11---11-8-11-13-14-16-13-11-9-8---11-|------------11--9-11------------------------------------------11--|------------------------------------------------------------------|------------------------------------------------------------------|
----------------------------------------------------------------|---------------14-12--------------------------------------------|--13-15-11-9-11---------9---9-11-----8-9-11-12-11-9-16-15-13-11-|-9---------------------9---9------9-11--------------------------|----------------------------------------------------------------|----------------------------------------------------------------|
WWWWWWWWWWWWWWWWWWWREFRAIN----------------------------------------------------------------|----------------------------------------------------------------|-14-12-10-12-14-----14-15-12-10-12---101112---12-14-15-17-15-14-|---------------12----------------------------10-----------------|----------------------------------------------------------------|----------------------------------------------------------------|
---------------------------------------------------------------|---15-17-13----------------------------------------------------|-14----------14-15-17-14-15-20-19---14-17-15-------12-14-15-12-|-----------------------------------------------12-15-----------|---------------------------------------------------------------|---------------------------------------------------------------|
---------------------------------------------------------------|----13------13-------------------------------------------------|-------1010----10-10-12-10-12-14-15-14-12-10-------------------|----------------------------------------------14-15-17-15------|---------------------------------------------------------------|---------------------------------------------------------------|
WWWWWWWWWWWWWWWWWWWSOLO----------------------------------------------------------------|-6/13-11-------------11-----------------------------------------|---------10-10-12-13----12-12-------------------17-19-20--------|------------------------------15-14-15-17-15-17-----------------|----------------------------------------------------------------|----------------------------------------------------------------|
-----------------------------17------------------------------13-|-------------18-20-20^-19-20------15-13-15----15/0--13-11-13----|-19-17-19-20-------------------------------12-------------------|----------------------------------------------------------------|----------------------------------------------------------------|----------------------------------------------------------------|
-------------------------13----16-13-15------------------------|-------------18^---13-14----14-----------16--------------------|----14-17-14--------------------------------15-12--------------|-15------------------------------------------------------------|---------------------------------------------------------------|---------------------------------------------------------------|
----------------10--10/0-0/9----------------------13-----------|------7----10-7-----------------14----13-16-13-14--------------|-7------7--------------------------15--------------------------|---9-----------------------------------------------------------|---------------------------------------------------------------|---------------------------------------------------------------|
---------------------------------------------------------------|-13-11-10-11-----------10----8---------------------------------|-------------10--10-12----10-----10----------------------------|------------------------------------10-------------------------|---------------------------------------------------------------|---------------------------------------------------------------|
---------------------------------------------------------------|----12^-10-----------------------------------------------------|-----------12-10-9-10-12---14^15-14-12-10---14----14-12--------|-10--------------------------------------------12--------------|---------------------------------------------------------------|---------------------------------------------------------------|
----------------------------------------------------------------|--------13------------------------------------------------------|-9-10-12-----12-14-15-14-15-17-14----10-12-14-12-15-14-17-17^18-|---------------------------------15-----------------------------|----------------------------------------------------------------|----------------------------------------------------------------|
WWWWWWWWWWWWWWWWWWWREFRAIN OUTRO---------------------------------------------------------------|---------------------------------------------------------------|-14-12-10-12-14----14---14-15-17-14-14/15/12---12-10-12----12--|----------------12--------------------------------------10-----|---------------------------------------------------------------|---------------------------------------------------------------|
---------------------------------------------------------------|---------------------15-17-13----------------------------------|-14-15-17-15-14----14-----------14-15-17--14-15-20-19----------|---------------------------------------------------------------|---------------------------------------------------------------|---------------------------------------------------------------|
---------------------------------------------------------------|---------------------------------------------------------------|-14-17-15--------12-14-12-15-----------------------------------|------------12-15----------------------------------------------|---------------------------------------------------------------|---------------------------------------------------------------|
---------------------------------------------------------------|14----14---14-15-17-14-14/15/12---12-10-12----12---------------|----------------12--------------------------------------10-----|---------------------------------------------------------------|---------------------------------------------------------------|---------------------------------------------------------------|
Enjoy :3
Tap to rate this tab
 
# A B C D E F G H I J K L M N O P Q R S T U V W X Y Z