Scary Kids Scaring Kids – City Sleeps In Flames tab

Alright, no one has taken the time to tab out all the picky details of this song...so I 
it a shot. I know a few things are off, but maybe someone can help me correct that?

Tuning: Drop D

Please listen to the song for proper strumming, it's hard to put in a tab.

****GUITAR ONE:**** Intro:|----------------------------||----------------------------||----------------------------||---5-5--5---5-5--5----5-5-5-||---2-2--2---2-2--2----2-2-2-||-x------------------x-------|
|----------------------------||----------------------------||----------------------------||---7-7--7---7-7--7----7-5-4-||---3-3--3---3-3--3----------||-x------------------x-------|
|----------------------------||----------------------------||----------------------------||---5-5--5---5-5--5----5-5-5-||---2-2--2---2-2--2----2-2-2-||-x------------------x-------|
|---------------------------||---------------------------||---------------------------||---7-7--7---7-7--7---------||---3-3--3---3-3--3---------||-x------------------222-222| PM.....
Buildup before the verse (listen for strumming):|-------------------------------------------------------||-------------------------------------------------------||-------------------------------------------------------||-5-5--5-5--5-5--5-5--5-5-5--7-7--7-7--7-7--7-7--7-7-7--||-2-2--2-2--2-2--2-2--2-2-2--3-3--3-3--3-3--3-3--3-3-3--||-------------------------------------------------------|
|--------------------------------------------------||--------------------------------------------------||--------------------------------------------------||-5-5--5-5--5-5--5-5--5-5-5------7---7------5---5--||-2-2--2-2--2-2--2-2--2-2-2------7---7------5---5--||----------------------------7-7-7-7-7--5-5-5-5-5--| PM. . . . .
Pre-Verse:|---------------------------------------------||---------------------------------------------||-------0---0-------0---0-------0---0---------||-----4---4-------4---4-------4---4-----------||-------------------------------------2-2-----||-------------------------------------2-2-----|
Verse (listen for the exact sequence):|------------------------------------------------||------------------------------------------------||-------0---0-------0---0-------2---2-----0------||-----4---4-------4---4-------4---4---------4p2--||-------------------------3-3---------3-3--------||-2-2---------2-2--------------------------------| PM. . . . . . .
|------------------------------------------------||------------------------------------------------||-------0---0-------0---0-------2---2------------||-----4---4-------4---4-------4---4-------0h2h4--||-------------------------2-2---------0-0--------||-2-2---------2-2--------------------------------| PM. . . . . . .
|------------------------------------------------------------------------------||------------------------------------------------------------------------------||-------0---0-------0---0-------------------------------0----------------------||-----4---4-------4---4---------5---5-------4---4-----2---2-2-5-4-2-0-2-0------||-------------------------2-2-7---7-------5---5---0-0---------------------3-2--||-2-2---------2-2---------------------4-4--------------------------------------| PM. . . . . . .
Chorus: x 2|-----------------------------------------------------------------||-----------------------------------------------------------------||-----------------------------------------------------------------||-2-2-2-2-2-2-2-2-2-2-2-2-2-2-2-2-7-7-7-7-7-7-7-7-7-7-7-7-7-7-7-7-||-2-2-2-2-2-2-2-2-2-2-2-2-2-2-2-2-5-5-5-5-5-5-5-5-5-5-5-5-5-5-5-5-||-2-2-2-2-2-2-2-2-2-2-2-2-2-2-2-2---------------------------------|
(you can mute this, or just palm mute the 3...)|------------------------------------------------------------------------||------------------------------------------------------------------------||------------------------------------------------------------------------||---5-5---5-----5-5---5-----5-5-5---7-7---7-----4-4-----4--------4--4--4-||---3-3---3-----3-3---3---3-3-3-3---5-5---5-----2-2-----2-----2--2--2--2-||-x-----x-----x------x-------------------x----x-------x------------------|
**Pre-Verse** **1/2 Verse**
Verse Pt II:|-----------------------------------------|x4|-----------------------------------------||-----------------------------------------||-----------------------------5p4-0h2-----||-2-2-------2-2--2--2-2-2-2-----------2h3-||-2-2-------2-2--2--2-2-2-2---------------| PM. . . . . . . .
Breakdown: There's a lot going on here, but here's something very basic to get you through.
|---------------------||---------------------||---------5~------4~--||-2~------------------||-2~------3~------2~--||-2~------------------|
|---------------------------------------------||---------------------------------------------||---------------------------------------------||-----5-4-2------7-5-4------4-5-2------0-2----||-0-0--------0-0---------------------------3--||-----------------------4-4--------4-4--------| PM. . . . . . .
|---------------------------------------------||---------------------------------------------||---------------------------------------------||-5-----------5-----5-5-5-5---5-7-4-5-2-4-0-2-||-2-2-2-2-2-2-2-2-2-2-2-2-2-2-----------------||-2-2-2-2-2-2-2-2-2-2-2-2-2-2-----------------| PM. . . . . . .
|-------------------------------------------------||-------------------------------------------------||-------------------------------------------------||-5-----------5-----5-5-5-5-----------5-----5-5-5-||-2-2-2-2-2-2-2-2-2-2-2-2-2-2-2-2-2-2-2-2-2-2-2-2-||-2-2-2-2-2-2-2-2-2-2-2-2-2-2-2-2-2-2-2-2-2-2-2-2-| PM. . . . . . . . . . . . .
|-------------------------------------------------------||-------------------------------------------------------||-------------------------------------------------------||-----5-4-2------7-5-4------4-5-2-9-7-5-4-5-4-2-0-------||-0-0--------0-0----------------------------------3-2-0-||-----------------------4-4-----------------------------| PM. . . . .
**Intro** **Chorus** ****GUITAR TWO:****
Buildup before verse:|-------------------------------------------------------||-------------------------------------------------------||-------------------------------------------------------||-2-2--2-2--2-2--2-2--2-2-2--5-5--5-5--5-5--5-5--5-5-5--||-2-2--2-2--2-2--2-2--2-2-2--3-3--3-3--3-3--3-3--3-3-3--||-2-2--2-2--2-2--2-2--2-2-2--3-3--3-3--3-3--3-3--3-3-3--|
|--------------------------------------------------||--------------------------------------------------||--------------------------------------------------||-2-2--2-2--2-2--2-2--2-2-2------7---7------5---5--||-2-2--2-2--2-2--2-2--2-2-2------7---7------7---7--||-2-2--2-2--2-2--2-2--2-2-2--7-7-7-7-7--5-5-5-5-5--| PM. . . . .
Pre-Verse:|---------------------------------------------||---------------------------------------------||---------------------------------------------||-2-2---------2-2---------2-2---------2-2-----||-2-2---------2-2---------2-2---------2-2-----||-2-2---------2-2---------2-2---------2-2-----| PM. . . . . . .
Verse: ~|------------------------------------------------||------------------------------------------------||-----2h4-2h4-----2h4-4p2-----2h4-2h5-----5p4p2--||------------------------------------------------||-------------------------3-3---------3-3--------||-2-2---------2-2--------------------------------| PM. . . . . . .
|------------------------------------------------||------------------------------------------------||-----2h4-2h4-----2h4-4p2-------4---4---------2--||-----------------------------5---5-------4h5----||-------------------------2-2---------0-0--------||-2-2---------2-2--------------------------------| PM. . . . . . .
|------------------------------------------------------------------------------||------------------------------------------------------------------------------||-----2-4-2-4-----2-4-4-2-------4---4-------2---2-------0---0-4-2-0-2-0--------||-----------------------------5---5-------4---4-------2---2-------------4-2-0--||-------------------------2-2---------------------0-0--------------------------||-2-2---------2-2---------------------4-4--------------------------------------|
Chorus: x 2|-7p0-0-5p0-0-3p0-0-2p0-0-2h3-------------------------------------||-----------------------------3h5-5-5-5-8-8-8-7-7-7---------------||---------------------------------------------------7-7-7-7-7-7-7-||---------------------------------2-2-2-5-5-5-4-4-4---------------||---------------------------------------------------5-5-5-5-5-5-5-||-----------------------------------------------------------------|
|-7p0-0-5p0-0-3p0-0-2p0-0-2h3-----------------------15-15-15-14-14-10-10-||-----------------------------3h5-5-5-5-8-8-8-7-7-7----------------------||------------------------------------------------------------------------||------------------------------------------------------------------------||------------------------------------------------------------------------||------------------------------------------------------------------------|
**Pre-Verse** **1/2 Verse** Verse Pt II:
|-----------------------------------------|x2|-----------------------------------------||-----------------------------4p2---------||---------------------------------4h5-0h2-||-2-2-------2-2--2--2-2-2-2---------------||-2-2-------2-2--2--2-2-2-2---------------| PM. . . . . . . .
|-7p0-0-5p0-0-2h3p2-0-----7p0---0-5p0-0-2h3p2-0------|x2|---------------------3h5-----------------------3-5--||----------------------------------------------------||----------------------------------------------------||----------------------------------------------------||----------------------------------------------------|
Breakdown:I usually do something like this, w/ the first chords very quietly|---------------------------------------7h8----7----------------------------||-------------------------------------------10---8h10-7h8-----7-------------||------7-7-7-7-11--11-11-11-12-12-12-12--------------------9----7h9-5h7-4h5-||---------------------------------------------------------------------------||------5-5-5-5--9---9--9--9-10-10-10-10-------------------------------------||---------------------------------------------------------------------------|
|-------------------||-------------------||-----4-------------||--7----5h7-4h5-2h4-||-------------------||-------------------|
Then...|---------------------------------------------||---------------------------------------------||-----4-2-0------5-4-2------2-4-0----------2--||--------------------------------------4-5----||-0-0--------0-0------------------------------||-----------------------4-4--------4-4--------| PM. . . . . . .
|-------------------------------------------------||-------------------------------------------------||-------------------------------------4-2-0-2-----||-----5-4-2-------7-5-4-------4-5-2-0---------4-5-||-2-2-------2-2-2-------2-2-2---------------------||-------------------------------------------------| PM. . . . . . .
|---------------------------------------------||---------------------------------------------||-----------------------------4-5-2-4-0-2-----||-----5-4-2-------7-5-4-------------------4-5-||-2-2-------2-2-2-------2-2-2-----------------||---------------------------------------------| PM. . . . . . .
|-------------------------------------------------------||-------------------------------------------------------||-----4-2-0------5-4-2------2-4-0-7-5-4-2-4-2-0---------||-----------------------------------------------4-5-2-0-||-0-0--------0-0----------------------------------------||-----------------------4-4-----------------------------| PM. . . . .
**Intro** **Chorus**
Please rate this tab:
x1.0