Scorpions - Blood Too Hot tab

-------------------------------------------------------------------------------
                            Blood Too Hot - The Scorpions
-------------------------------------------------------------------------------
Tabbed by: Mike


Tuning: Full Step Down from Standard

Sorry, not worked out the solo yet, but i'll add it when I have :]

Key
~ = Vibrato

^ = BEND UP

INTRO (RIFF 1)|---------------------------------------------------------------------------||---------------------------------------------------------------------------||---------------------------------------------------------------------------||---------------------------------------------------------------------------||---------------2-0---------------------------------------------------------||-0-2-0-3~~ 0-0-----3-0 --0-0-----------------------------------------------|
VERSE 1 (RIFF 2)|------------------------||-3----------------------||-2--5-------------------||-0--5--2--0 2-0 2-------||-0--3--2--0 2-0 2-------||-------0----------------|
|----------------------||----3-----------------||----2-5---------------||-5--0-5--2--0 2-0 2---||-5--0-3--2--0 2-0 2---||-3-------0------------|
|-----------------------||-----3-----------------||-----2--5-----------5--||-5---0--5--5--5--5- 5--||-5---0--3--5--5--5- 3--||-3---------3--2--3-----|
NTRO (RIFF 1)|---------------------------------------------------------------------------||---------------------------------------------------------------------------||---------------------------------------------------------------------------||---------------------------------------------------------------------------||---------------2-0---------------------------------------------------------||-0-2-0-3~~ 0-0-----3-0 --0-0-----------------------------------------------|
VERSE 2 (RIFF 2)|------------------------||-3----------------------||-2--5-------------------||-0--5--2--0 2-0 2-------||-0--3--2--0 2-0 2-------||-------0----------------|
|----------------------||----3-----------------||----2-5---------------||-5--0-5--2--0 2-0 2---||-5--0-3--2--0 2-0 2---||-3-------0------------|
|-----------------------||-----3-----------------||-----2--5-----------5--||-5---0--5--5--5--5- 5--||-5---0--3--5--5--5- 3--||-3---------3--2--3-----|
CHORUS (RIFF 3) The timing is hard to tab, but listen to the record and you'll get it :]|-----------------------------------||-----------------------------------||-7/-9-9--7/-9-9--7/-9-9--12-11-9-7-||-7/-9-9--7/-9-9--7/-9-9--12-11-9-7-||-5/-7-7--5/-7-7--5/-7-7--10--9-7-5-||-----------------------------------|
INTRO (RIFF 1)|---------------------------------------------------------------------------||---------------------------------------------------------------------------||---------------------------------------------------------------------------||---------------------------------------------------------------------------||---------------2-0---------------------------------------------------------||-0-2-0-3~~ 0-0-----3-0 --0-0-----------------------------------------------|
VERSE 3 (RIFF 2)|------------------------||-3----------------------||-2--5-------------------||-0--5--2--0 2-0 2-------||-0--3--2--0 2-0 2-------||-------0----------------|
|----------------------||----3-----------------||----2-5---------------||-5--0-5--2--0 2-0 2---||-5--0-3--2--0 2-0 2---||-3-------0------------|
|-----------------------||-----3-----------------||-----2--5-----------5--||-5---0--5--5--5--5- 5--||-5---0--3--5--5--5- 3--||-3---------3--2--3-----|
CHORUS (RIFF 3) (RUDOLF)|-----------------------------------||-----------------------------------||-7/-9-9--7/-9-9--7/-9-9--12-11-9-7-||-7/-9-9--7/-9-9--7/-9-9--12-11-9-7-||-5/-7-7--5/-7-7--5/-7-7--10--9-7-5-||-----------------------------------|
IN THIS CHORUS (RIFF 4) THE OTHER GUITAR (I ASSUME IS MATTHIAS) DOES A BEND LIKE THIS...
|------------------------------------------------||--------15^ ~~~~-15^ ~~~~-15^ ~~~~--------------||-7/-9-9-----------------------------12-11-9-7---||-7/-9-9-----------------------------12-11-9-7---||-5/-7-7-----------------------------10--9-7-5---||------------------------------------------------|
SOLO ....
BEHIND SOLO IS RIFF 1|---------------------------------------------------------------------------||---------------------------------------------------------------------------||---------------------------------------------------------------------------||---------------------------------------------------------------------------||---------------2-0---------------------------------------------------------||-0-2-0-3~~ 0-0-----3-0 --0-0-----------------------------------------------|
RIFF 5
|----------||----------||----------||--X-X--2--||--X-X--2--||-------0--| X 7
ON THE 8th BAR NOTHING IS PLAYED IT'S JUST KLAUS AND THE DRUM FILL
CHORUS (RIFF 3) (RUDOLF)|-----------------------------------||-----------------------------------||-7/-9-9--7/-9-9--7/-9-9--12-11-9-7-||-7/-9-9--7/-9-9--7/-9-9--12-11-9-7-||-5/-7-7--5/-7-7--5/-7-7--10--9-7-5-||-----------------------------------|
CHORUS (RIFF 4) (MATTHIAS)
|------------------------------------------------||--------15^ ~~~~-15^ ~~~~-15^ ~~~~--------------||-7/-9-9-----------------------------12-11-9-7---||-7/-9-9-----------------------------12-11-9-7---||-5/-7-7-----------------------------10--9-7-5---||------------------------------------------------|
THEN MATTHIAS JUST SOLO'S
INTRO (RIFF 1) (RUDOLF)|---------------------------------------------------------------------------||---------------------------------------------------------------------------||---------------------------------------------------------------------------||---------------------------------------------------------------------------||---------------2-0---------------------------------------------------------||-0-2-0-3~~ 0-0-----3-0 --0-0-----------------------------------------------|
(MATTHIAS)|--------------------------------||---15^~~~~----------------------||-----------14~--12-14-12~~~-----||--------------------------------||--------------------------------||--------------------------------|
THEN I THINK IT GOES INTO 3/4 BUT IT'S JUST...
INTRO (RIFF 1)|---------------------------------------------------------------------------||---------------------------------------------------------------------------||---------------------------------------------------------------------------||---------------------------------------------------------------------------||---------------2-0---------------------------------------------------------||-0-2-0-3~~ 0-0-----3-0 ----------------------------------------------------|
FADE :] ENJOY...SOLO WILL FOLLOW :] LYRICS: Music: RudoIf Schenker Lyrics: Klaus Meine I came all around the world just to be with you I've been flying supersonic, between black and blue I promised I'd be there And now I'm here and I won't go Before I give you everything I've got You left everything behind, just to feel that touch To join the family of spiders. really means so much There's a storm up in the air It's the power we all share When it runs through our flesh and blood If your blood is so hot Stand up and rock with me If your blood is too hot, rock with me If your blood is so hot Stand up and rock with me If your blood is too hot, rock with me I came all around the world, like on flying wings To hear you screaming out for more, still means everything Raise your hands up in the air I swear to you that I'll be there I swear it, in the name of rock If your blood is so hot Stand up and rock with me If your blood is too hot, rock with me If your blood is so hot Stand up and rock with me If your blood is too hot, rock with me
Tap to rate this tab
 
# A B C D E F G H I J K L M N O P Q R S T U V W X Y Z