Sea Of Treachery - Back To The Surface tab

OK I said I would start working on this tab 2 months ago and I never
got around to it, but HERE IT IS! Once again, alot of help with some 
riffs from Billybusa again, so Thanks :) 4th tab of mine, please rate 
and give comments or corrections on this tab! This song is really fun
to play, hope you like!

TITLE: Back To The Surface
BAND: Sea Of Treachery
ALBUM: At Daggers Drawn

LEGEND:

p = pull-off
h = hammer-on
~ = Vibrato

|--------------------------------------------------------------------||--------------------------------------------------------------------||--------------------------------------------------------------------||---------------------3p0-5p0-7p0------------------------------------| x 4|-----5p0-----------------------------5p0-------8h10-------5h8p0-----||-0-0-----8p0-0-7p0-0-------------0-0-----8p0-0------0-0-0-------3h5-|
|-----------------------------------------------------------------||-----------------------------------------------------------------||-----------------------------------------------------------------||-----------------------------------------------------------------| x 4|-0-0-0-0-3h5-0-0-0-0-0-0-5h6p5-3h5-0-0-0-0-3h5-0-0-0-0-0-0-0-6-5-||-0-0-0-0-3h5-0-0-0-0-0-0-5h6p5-3h5-0-0-0-0-3h5-0-0-0-0-0-0-0-6-5-|
|-------------------------------------------------------||-------------------------------------------------------||-------------------------------------------------------||-0---------------------------------0-------------------| x 2|-0--000-000---0000-0-0---000-000---0--0-0--------------||-0--000-000---0000-0-0---000-000---0--0-0--------------|
|---------------------------------------------------------------------||---------------------------------------------------------------------||---------------------------------------------------------------------||---------------------3p0-5p0-7p0-------------------------------------| x 2|-----5p0------------------------------5p0-------8h10-------5h8p0-----||-0-0-----8p0-0-7p0-0--------------0-0-----8p0-0------0-0-0-------3h5-|
|----------------------------------------------------------------------||----------------------------------------------------------------------||----------------------------------------------------------------------||----------------------------------------------------------------------||-0-------------7h8----------10h12--0-------------7h8--------0-7-6-----|\|-0-000-000-000-----0-8h10-0--------0-000-000-000-----0-10h8-0-7-6-----| \
|----------------------------------------------------------------------| x 3|----------------------------------------------------------------------| /|----------------------------------------------------------------------| /|----------------------------------------------------------------------|/|-0-------------7h8----------10h12--0------------------8----8p7-8h10---||-0-000-000-000-----0-8h10-0--------0-000-000-000-8h10---10------------|
|-------------------------------------------------------||-------------------------------------------------------||-Play this stocatto after 3rd time of this ^ riff------||-------------------------------------------------------||-0-0---------------------------------------------------||-0-0---------------------------------------------------|
|-------------------------------------------------------||-------------------------------------------------------||-------------------------------------------------------||-1~~~---8~~---3~---1~~~---8~~---3~---------------------| x 2|-1~~~---8~~---3~---1~~~---8~~---3~---------------------||-1~~~---8~~---3~---1~~~---8~~---3~---------------------|
|-------------------------------------------------------||-------------------------------------------------------||-------------------------------------------------------||-0-----------------------------------------------------||-0--------8----8p7-8h10--------------------------------||-0---8h10---10-----------------------------------------|
|----------------------------------------------------------------------||----------------------------------------------------------------------||----------------------------------------------------------------------||----------------------------------------------------------------------||-0-------------7h8----------10h12--0-------------7h8--------0-7-6----- \|-0-000-000-000-----0-8h10-0--------0-000-000-000-----0-10h8-0-7-6-----| \
|----------------------------------------------------------------------| x 2|----------------------------------------------------------------------| /|----------------------------------------------------------------------| /|----------------------------------------------------------------------|/|-0-------------7h8----------10h12--0------------------8----8p7-8h10---||-0-000-000-000-----0-8h10-0--------0-000-000-000-8h10---10------------|
|-------------------------------------------------------||-------------------------------------------------------||-------------------------------------------------------||-0---------------0---------------0---------------------||-0-000-000-000---0-000-000-000---0-000-000-000---------||-0-000-000-000---0-000-000-000---0-000-000-000---------|
|-------------------------------------------------------------------||-------------------------------------------------------------------||-------------------------------------------------------------------||-0--------------------------------0--------------------------------||-0-000-000-000------8----8p7-8h10-0-000-000-000-7h8----------10h12-||-0-000-000-000-8h10---10----------0-000-000-000-----0-8h10-0-------|
|-----------------------------------------------------------------------------------||-----------------------------------------------------------------------------------||-----------------------------------------------------------------------------------||-0---------------0--------------------------------0--------------------------------||-0-000-000-000---0-000-000-000-7h8----------10h12-0-000-000-000------8----8p7-8h10-||-0-000-000-000---0-000-000-000-----0-8h10-0-------0-000-000-000-8h10---10----------|
|-------------------------------------------------------||-------------------------------------------------------||-------------------------------------------------------||-1~~~---8~~---3~---1~~~---8~~---3~---------------------| x 2|-1~~~---8~~---3~---1~~~---8~~---3~---------------------||-1~~~---8~~---3~---1~~~---8~~---3~---------------------|
|----------------------------------------------------------------------------------------||----------------------------------------------------------------------------------------||----------------------------------------------------------------------------------------||-0~-------------------------------------------------------------------------------------||-0~-0-0-0000-0000-0000---0-0-0000-0000-0000---0-0-0000-0000-0000---0-0-0000-0000-000000-||-0~-0-0-0000-0000-0000---0-0-0000-0000-0000---0-0-0000-0000-0000---0-0-0000-0000-000000-|
|---------------------------------------------------------------||---------------------------------------------------------------||---------------------------------------------------------------||---------------------------------------------------------------||-0-0-0000-0000-0-0---0-0-0000-0000-0-0---0-0-0000-0000-0-0-----||-0-0-0000-0000-0-0---0-0-0000-0000-0-0---0-0-0000-0000-0-0-----|
|---------------------------------------------------------------||---------------------------------------------------------------||---------------------------------------------------------------||---------------------------------------------------------------||-0-0-0000-0000-0-0-0000-0000-0000-0000-0-0-0000-0000-0-0-------||-0-0-0000-0000-0-0-0000-0000-0000-0000-0-0-0000-0000-0-0-------|
|---------------------------------------------------------------||---------------------------------------------------------------||---------------------------------------------------------------||---------------------------------------------------------------||-0-0-0000-0000-0-0---0-0-0000-0000-0-0---0-0-0000-0000-0-0-----||-0-0-0000-0000-0-0---0-0-0000-0000-0-0---0-0-0000-0000-0-0-----|
|-----------------------------------------------------------------||-----------------------------------------------------------------||-----------------------------------------------------------------||-----------------------------------------------------------------| x 2|-0-0-0-0-3h5-0-0-0-0-0-0-5h6p5-3h5-0-0-0-0-3h5-0-0-0-0-0-0-3h5-1-||-0-0-0-0-3h5-0-0-0-0-0-0-5h6p5-3h5-0-0-0-0-3h5-0-0-0-0-0-0-3h5-1-|
|--------------------------------------------------------------||--------------------------------------------------------------||--------------------------------------------------------------||--------------------------------------------------------------| x 2|-0-0-0-0-3h5-0-0-0-0-0-0-5h6p5-3h5-0-0-0-0-3h5-0-0-0-0-0-0-1~-||-0-0-0-0-3h5-0-0-0-0-0-0-5h6p5-3h5-0-0-0-0-3h5-0-0-0-0-0-0-1~-|
|-------------------------------------------------------||-------------------------------------------------------||-------------------------------------------------------||-1~~~---8~~---3~---1~~~---8~~---3~---------------------| x 2|-1~~~---8~~---3~---1~~~---8~~---3~---------------------||-1~~~---8~~---3~---1~~~---8~~---3~---------------------|
|------------------||------------------||------------------||-1~~~---Fade Out--||-1~~~-------------||-1~~~-------------|
Tap to rate this tab
 
# A B C D E F G H I J K L M N O P Q R S T U V W X Y Z